Lynyrd Skynyrd - Sweet Home Alabama Chords & Tabs

 

Sweet Home Alabama Chords & Tabs

Lynyrd Skynyrd Chords & Tabs

Version: 2 Type: Bass Tab 0 ratings
1 star 2 stars 3 stars 4 stars 5 stars
comments

Sweet Home Alabama Bass Tab

Lynyrd Skynyrd
Sweet Home Alabama

Riff 1
G|-----7-|-----5-|-------|-------|----|
D|-------|-------|-----5-|-----5-|----|
A|-5-5---|-3-3---|-------|-------|-3/-|
E|-------|-------|-3-3---|3-3----|----|

[ Tab from: http://www.guitartabs.cc/tabs/l/lynyrd_skynyrd/sweet_home_alabama_btab_ver_2.html ]
Riff 1
G|-----7-|-----5-|-------|-------|----|
D|-------|-------|-----5-|-----5-|----|
A|-5-5---|-3-3---|-------|-------|-3/-|
E|-------|-------|-3-3---|3-3----|----|


Riff 1
G|-----7-|-----5-|-------|-------|----|
D|-------|-------|-----5-|-----5-|----|
A|-5-5---|-3-3---|-------|-------|-3/-|
E|-------|-------|-3-3---|3-3----|----|

Repeat Riff 1 until end of song
Comments