Lynyrd Skynyrd - Simple Man Chords & Tabs

 

Simple Man Chords & Tabs

Lynyrd Skynyrd Chords & Tabs

Version: 6 Type: Tab 0 ratings
1 star 2 stars 3 stars 4 stars 5 stars
comments

Simple Man Tab

   
-----------------------------------------------------------------------------
			     Simple Man-Lynyrd Synyrd
-----------------------------------------------------------------------------
Tabbed by: Kole R.
Email: olkingkole13@yahoo.com -please feel free to email me any corrections, or if you 
the solo because i know some of it but i dont wanna put it in here and have it be wrong

Tuning:Eadgbe

| /  slide up
| \  slide down
| h  hammer-on
| p  pull-off
| ~  vibrato
| +  harmonic
| x  Mute note

  Intro (x2)
        (C)                      (G)                  (A)
e|-----------------------|-------------------|-------------------------0----|
b|-------------1---------|-------------------|---------1----------1-------1-|
g|-------0--------0---0--|---------0---------|---2-------2---2------2-------|
d|---------2--------2----|----0-------0---0--|-----2-------2----------2-----|
a|-0-3/2-----3-----------|------2-------2----|-0-----0----------0-----------|
E|-----------------------|--3-----3----------|------------------------------|

   Verse
     (C)                      (G)                  (A)
e|-----------------------|-------------------|-------------------------0----|
b|-------------1---------|-------------------|---------1----------1-------1-|
g|-------0--------0---0--|---------0---------|---2-------2---2------2-------|
d|---------2--------2----|----0-------0---0--|-----2-------2----------2-----|
a|-0-3/2-----3-----------|------2-------2----|-0-----0----------0-----------|
E|-----------------------|--3-----3----------|------------------------------|
     mama told me...                       when i was young....

     (C)                 (G)                  (A)
e|-----------------------|-------------------|-------------------------0----|
b|-------------1---------|-------------------|---------1----------1-------1-|
g|-------0--------0---0--|---------0---------|---2-------2---2------2-------|
d|---------2--------2----|----0-------0---0--|-----2-------2----------2-----|
a|-0-3/2-----3-----------|------2-------2----|-0-----0----------0-----------|
E|-----------------------|--3-----3----------|------------------------------|
      come sit beside me                   my only son......

[ Tab from: http://www.guitartabs.cc/tabs/l/lynyrd_skynyrd/simple_man_tab_ver_6.html ]
   (C)                      (G)                  (A)
e|-----------------------|-------------------|-------------------------0----|
b|-------------1---------|-------------------|---------1----------1-------1-|
g|-------0--------0---0--|---------0---------|---2-------2---2------2-------|
d|---------2--------2----|----0-------0---0--|-----2-------2----------2-----|
a|-0-3/2-----3-----------|------2-------2----|-0-----0----------0-----------|
E|-----------------------|--3-----3----------|------------------------------|
      now listen closley...                to what i say...


   (C)                      (G)                  (A)
e|-----------------------|-------------------|-------------------------0----|
b|-------------1---------|-------------------|---------1----------1-------1-|
g|-------0--------0---0--|---------0---------|---2-------2---2------2-------|
d|---------2--------2----|----0-------0---0--|-----2-------2----------2-----|
a|-0-3/2-----3-----------|------2-------2----|-0-----0----------0-----------|
E|-----------------------|--3-----3----------|------------------------------|
      cuz if you do this      itll help you        some sunnny day

      (x2)
e|-------------------------------------------------------------------------|
b|-------------------------------------------------------------------------|
g|-------------------------------------------------------------------------|
d|-------------------------------------------------------------------------|
a|--0--2--3~~~~--5b~~-3-----5b--3------------------------------------------|
E|-----------------------3~~-------5~~---0-3-0---3/5~~~~-------------------|

then play the verse again

Chorus (x4)
e|-------------------------------------------------------------------------|
b|-------------------------------------------------------------------------|
g|-------------------------------------------------------------------------|
d|---10~~---10-\--5~~~-5-/-7-------------7~~~------------------------------|
a|---10~~---10-\--5~~~-5-/-7-------------7~~~------------------------------|
E|--h-8~~----8-\--3~~~-3-/-5---0--3--0---5~~~------------------------------|


then verse
then chorus x2
then solo which i dont have yet

hope you like this...this is one of my favorite skynyrd songs and i have been playin it 
about year and im 100% sure that this is right
Comments