Lynyrd Skynyrd - Simple Man Chords & Tabs

 

Simple Man Chords & Tabs

Lynyrd Skynyrd Chords & Tabs

Version: 5 Type: Tab 0 ratings
1 star 2 stars 3 stars 4 stars 5 stars
comments

Simple Man Tab

Simple Man
Guitar Solo

Great song. Enough said.  I already have the intro, verse, and chorus on this site,
so here’s the solo.

Pack on the distortion (gobs of it)!!!!!!
(possibly tuned down 1/2 step, doesnt seem to matter)

h - hammer on
p - pull off
# - vibrato until next note shown
* - bend one full step
** - bend one full step and return (the note indicated to be bent will be starred
as noted, and the same number will be shown in parentheses following the stars to
indicate  returned bend)
*# - bend chord/note one full step with vibrato
^ - ghost bend one full step (bend before striking note; no sound of bend)
^# - ghost bend one full step with vibrato
/ - slide up or down and tie notes

note: continue throughout the solo continuously; the break in the tab (at the
ends of the lines) do not mean to take a sudden brake; continue with the song
with the first note of the next tab line form thingy.... you’ll understand. 


|-------------------------------------------------------------------------------
|-----8*#-----8**(8)---8*#-------------------------------13---------------------
|-5-7-7-------7--(7)-5-7-------7**(7)-5---------12h14-14----14--(14)h17-17h19---  dont stop!!!
|---------------------------------------7---------------------------------------
|-------------------------------------------------------------------------------
|-------------------------------------------------------------------------------
[ Tab from: http://www.guitartabs.cc/tabs/l/lynyrd_skynyrd/simple_man_tab_ver_5.html ]
|-------------------------------------------------------17-20-20^-20^-20^-20*-17-----------
|-20*#-----20-------20*#--------------------20*#-----17--------------------------17-20*#---
|-19----------19-17-19-------19**(19)p17---------------------------------------------------
|----------------------------------------19------------------------------------------------
|------------------------------------------------------------------------------------------
|------------------------------------------------------------------------------------------

|---------------------------------17------------17----------17----------17-----------
|-20**(20)p17-20#-----(20)/------------20*---------20*---------20*---------17-20*----
|---------------------------12/19------------18----------19---------19*--------------
|------------------------------------------------------------------------------------
|------------------------------------------------------------------------------------
|------------------------------------------------------------------------------------

|-------------------------------------------5------------------------------------
|--------------------8------------------------8-8^#/---------------------13-15---
|---5-7-7**(7)**-------(7)p5-7**(7)#-----7*-------------5-7/9-9/12-12/14---------
|-5-------------------------------------------------5/7--------------------------  dont stop!!!
|--------------------------------------------------------------------------------
|--------------------------------------------------------------------------------

|------------------------15------------------15-------------15**#-------(15)/5-----------------
|-15**--------(15)/12--------15**--(15)#--------15**(15)p13------------------------------------
|------------------------------------------------------------------------------7**(7)p5--------
|---------------------------------------------------------------------------------------7#-----
|----------------------------------------------------------------------------------------------
|----------------------------------------------------------------------------------------------

this tab looks best in size 9 courier font in a word document (copy and paste).
adios.
Comments