Lynyrd Skynyrd - Simple Man Chords & Tabs

 

Simple Man Chords & Tabs

Lynyrd Skynyrd Chords & Tabs

Version: 1 Type: Bass Tab 0 ratings
1 star 2 stars 3 stars 4 stars 5 stars
comments

Simple Man Bass Tab

Simple Man - Lynyrd Skynyrd

                                           verse  (use variations of
     intro (x2)                              the sevens here--improv)
G|-------------------1214----------------|---------------------------|
D|-----------------------12131412--------|------------------7--5-7-7-|
A|023--2h31------2---------------12--12\-|023--2h31------2----7-7----|
E|---------3--2h3-5----------------------|---------3--2h3-5----------|

[ Tab from: http://www.guitartabs.cc/tabs/l/lynyrd_skynyrd/simple_man_btab.html ]
  first chorus riff
   (no singing)          chorus "and be a simpllllllle.."
G|----------------------|------------------------|
D|-----21----21---------|------------------------|
A|023----3--------------|023--2h31------2--------|
E|--------3----35--0305-|---------3--2h3-5--0305-|


   guitar solo riff
G|-----------------------------|
D|---------2-------------------|
A|023-3--23--------2-----------|
E|----------3-3--23-5-5-0305-5-|

tabbed by Achilles (blue_sincere@hotmail.com)
Comments