Lynyrd Skynyrd - Saturday Night Special Chords & Tabs

 

Saturday Night Special Chords & Tabs

Lynyrd Skynyrd Chords & Tabs

Version: 2 Type: Bass Tab 0 ratings
1 star 2 stars 3 stars 4 stars 5 stars
comments

Saturday Night Special Bass Tab

Saturday Night Special
Lynyrd Skynyrd

Tabed by: E. Carver

Intro          x6
G---------------||----------------|------------| |---------------|
D--------------o||--9-7-----------|------------| |---------------|
A--------------o||-----9-7--------|------------| |---------------|
E--7--7--7--7---||---------r-5-r-2|--0------0-0| |--4-4-5-5-6-6--|

Verse                                                                  x3
G-----------------|---------------|------------------|-----------------||
D-----------------|---------------|------------------|----------------o||
A----------5------|----5----------|----------5-------|----5-7---5--7--o||
E--5-7--r----7--r-|--r--7-0-5--7--|--5-7--r----7--r--|--r-----7--------||

	       x7
G---------------||--------------|
D--------------o||--------------|
A--------------o||----7-5-------|
E--7--7--7--7---||--7-----7-0--r|

Chorus             x3                                x2
G-------------------||------------||------------------||---------------||-----|
D------------------o||------------||-----------------o||---------------||-----|
A------------------o||------------||-----------------o||---------------||-----|
E--7-7-r-7-r-7--r---||--5--0--2/--||--7-7-r-7-r-7--r--||7-7-r-7-r-7-r-0||--0--|

								      x4
G-----------------|---------------|------------------|-----------------||
D-----------------|---------------|------------------|----------------o||
A----------5------|----5----------|----------5-------|----5-7---5--7--o||
E--5-7--r----7--r-|--r--7-0-5--7--|--5-7--r----7--r--|--r-----7--------||

G-----------------|---------------|------------------|----------------|
D-----------------|---------------|------------------|----------------|
A----------5------|----5----------|----------5-------|----7-5---------|
E--5-7--r----7--r-|--r--7-0-5--7--|--5-7--r----7--r--|--0-----7-0--r--|
							
                   x3x                               x2
G-------------------||------------||------------------||---------------|  
D------------------o||------------||-----------------o||---------------|
A------------------o||------------||-----------------o||---------------|
E--7-7-r-7-r-7--r---||--5--0--2/--||--7-7-r-7-r-7--r--||7-7-r-7-r-7-r-0|

G---------------|
D---------------|
A---------------|
E---0-----r--r--|
[ Tab from: http://www.guitartabs.cc/tabs/l/lynyrd_skynyrd/saturday_night_special_btab_ver_2.html ]
                                                            x2
G--------------|--------------|--------------|---------------||
D--------------|--------------|--------------|--------------o||
A--------------|--------------|--------------|--------------o||
E--7--7--7--7--|--5--5--5--5--|--7--7--7--7--|--0--0--0--0---||

G--------------|--------------|----------------|----------------|
D--------------|--------------|----------------|----------------|
A--------------|--------------|----------------|---------7-5----|
E--7--7--7--7--|--5--5--5--5--|--7--7--7--7--0-|--0----------7--|

                                                            x2
G--------------|--------------|--------------|---------------||
D--------------|--------------|--------------|--------------o||
A--------------|--------------|--------------|--------------o||
E--7--7--7--7--|--5--5--5--5--|--7--7--7--7--|--0--0--0--0---||

G--------------|--------------|--------------| |-----|
D--------------|--------------|--------------| |-----|
A--------------|--------------|--------------| |-----|
E--7--7--7--7--|--5--5--5--5--|--7--7--7--7--| |--0--|

Lead Solo
                                                                      x2
G-----------------|---------------|------------------|-----------------||
D-----------------|---------------|------------------|----------------o||
A----------5------|----5----------|----------5-------|----5-7---5--7--o||
E--5-7--r----7--r-|--r--7-0-5--7--|--5-7--r----7--r--|--r-----7--------||

                                                               x2
G--------------|----------------|--------------|----------------||
D--------------|----------------|--------------|---------------o||
A--------5-----|----5-7---5--7--|--------5-----|----5-7--5--7--o||
E--5-7-----7---|--r-----7-------|--5-7-----7---|--r----7--------||
     

                                                                      x2
G-----------------|---------------|------------------|-----------------||
D-----------------|---------------|------------------|----------------o||
A----------5------|----5----------|----------5-------|----5-7---5--7--o||
E--5-7--r----7--r-|--r--7-0-5--7--|--5-7--r----7--r--|--r-----7--------||

              x6
G--------------||------------------|------------------|
D-------------o||--/9999--9--------|--/9999--9--------|
A-------------o||------------------|------------------|
E--7--7--7--7--||------------7--7--|------------7--7--|
Comments