Lynyrd Skynyrd - Red White And Blue Chords & Tabs

 

Red White And Blue Chords & Tabs

Lynyrd Skynyrd Chords & Tabs

Version: 1 Type: Tab 0 ratings
1 star 2 stars 3 stars 4 stars 5 stars
comments

Red White And Blue Tab

   
The verse is an Asus2 arpeggio with a decending base line 
Tuned a half step down, clean electric (accompanied by an
acoustic after the first run through)
[ Tab from: http://www.guitartabs.cc/tabs/l/lynyrd_skynyrd/red_white_and_blue_tab.html ]
E-------0------            -------0------            -------0------
B---------0----            ---------0----            ---------0----
G-----2-----2-- twice,then -----2-----2-- twice,then -----2-----2-- 
D---2---------2            ---2---------2            ---2---------2  
A-0------------            --------------            --------------
E--------------            -3------------            -2------------

finally, --------0------  Go back to the A base note for two more runs,
         ----------0----  and start over again
         ------2-----2--
         ----2---------2
         ---------------
         -1-------------

The chorus is just chords with little fills, and it goes:
  A  Emin  Dsus2 A Emin Bsus2 G  Asus4
But I'm not positive those are the correct forms for the A chord
Comments