Lynyrd Skynyrd - On The Hunt Chords & Tabs

 

On The Hunt Chords & Tabs

Lynyrd Skynyrd Chords & Tabs

Version: 3 Type: Tab 0 ratings
1 star 2 stars 3 stars 4 stars 5 stars
comments

On The Hunt Tab

-------------------------------------------------------------------------------
			     lynard skynard- on the hunt
-------------------------------------------------------------------------------

By:brando comando
b_comando@dr.com                 long live electric!
e|---------------------------------------------------------------------------|
B|---------------------------------------------------------------------------|
G|-4---------------------------2--------------------  -- x----x--------------|
D|-4-------------4-------------2--------------------2 - -x----x--------------|
A|-2-----2h4/5-------5\4-------0--------------------2 - -x----x--------------|
E|------------------------------------4(1/2 bend)---0- - x-pm-x--------------|
[ Tab from: http://www.guitartabs.cc/tabs/l/lynyrd_skynyrd/on_the_hunt_tab_ver_3.html ]
e|---------------------------------------------------------------------------|
B|---------------------------------------------------------------------------|
G|-4---------------------------2---------------------------------------------|
D|-4-------------4-------------2---------------------------------------------|
A|-2-----2h4/5--------5\4------0---------------------------------------------|
E|---------------------------------------------------------------------------|
chorus
e|---------------------------------------------------------------------------|
B|---------------------------------------------------------------------------|
G|--9-----------4----------7----------2--------------------------------------|
D|--9-----------4----------7----------2--------------------------------------|
A|--7-----------2----------5----------0-------0 0 0 0 ---2/4\2---slide-------|
E|-------------------------5-------------------------------------------------|

e|---------------------------------------------------------------------------|
B|--9-----------4----------7----------2-------[--2-2-2---]-------------------|
G|--9-----------4----------7----------2-------[--2-2-2---]-------------------|
D|--7-----------2----------5----------0----pm-[--0-0-0---]-------------------|
A|-------------------------5----------------------------------3bend----------|
E|-------------------------------------------------------------------0-------|
Comments