Lynyrd Skynyrd - Needle And The Spoon Chords & Tabs

 

Needle And The Spoon Chords & Tabs

Lynyrd Skynyrd Chords & Tabs

Version: 5 Type: Tab

Needle And The Spoon Tab

   
                F chord    D chord
E---------------1-1--------2--------|
B----3-------3--1-1--------3--------|
G---------------2-2--------2--------|
D--0------------3-3--------0--------|
A-------3-3-------------------------|
E-----------------------------------|
[ Tab from: http://www.guitartabs.cc/tabs/l/lynyrd_skynyrd/needle_and_the_spoon_tab_ver_5.html ]
                    G chord    D chord
E-------------------3-3--------2----|
B---------3------3--0-0--------3----|
G-------------------0-0--------2----|
D-------0-----------0-0--------0----|
A-0-2-3-----3-3-----2-3-------------|
E-------------------3-3-------------|

Well thats the intro. I know The rest of the song but i didn't have time to tab. I will 
the rest later