Lynyrd Skynyrd - Needle And The Spoon Chords & Tabs

 

Needle And The Spoon Chords & Tabs

Lynyrd Skynyrd Chords & Tabs

Version: 4 Type: Tab 0 ratings
1 star 2 stars 3 stars 4 stars 5 stars
comments

Needle And The Spoon Tab

   
Title: the needle and the spoon
Artist: lynyrd skynyrd
Album: 

Instrument: 6 String Guitar

Tabbed by: matt (matthew.k.hinds@us.army.mil)

Tuning: Standard (E A D G B E)




E|-------------------------------------------------------------------||
B|-------------------------------------------------------------------||
G|----7-----------5--------------------------------------------------||
D|---------------------3-3----------------------------3-3------------||
A|-5-------5\3-3-------------5--5-3p0h3-5-5----3-3-3--------5--5-----||
E|-------------------------------------------------------------------||

E|-------------------------------------------------------------------||
B|-------------------------------------------------------------------||
G|----------------------------------------------------12-10------7---||
D|----------------------3-3----------------------------------12------||
A|-3p0h3-5-5----3-3-3---------5--5-3p0h3-5--5--3-3-3-----------------||
E|-------------------------------------------------------------------||

E|-------------------------------------------------------------------||
B|-------------------------------------------------------------------||
G|-------------------------------------------------------------------||
D|-7-7--5-5-5--10-10---7----------7-7--5-5-5---3-5-3-0---0-----------||
A|-5-5--3-3-3---8--8---5---0-3/5--5-5--3-3-3----------------3p0h3----||
E|-------------------------------------------------------------------||
[ Tab from: http://www.guitartabs.cc/tabs/l/lynyrd_skynyrd/needle_and_the_spoon_tab_ver_4.html ]
E|-------------------------------------------------------------------||
B|-------------------------------------------------------------------||
G|-------------------------------------------------------------------||
D|-------------3-3---------------------------3-5-3-0---0-------------||
A|-5-5--3-3-3-------5-5---3p0h3-5-5--3-3-3----------------3p0h3------||
E|-------------------------------------------------------------------||

E|-------------------------------------------------------------------||
B|-------------------------------------------------------------------||
G|-------------------------------------------------------------------||
D|-------------3-3-------------------------3-5-3-0---0---------------||
A|-5-5--3-3-3-------5-5--3p0h3-5-5--3-3-3----------------3p0h3-------||
E|-------------------------------------------------------------------||

E|---------------------------------------------------------------------||
B|---------------------------------------------------------------------||
G|---------------------------------------------------------------------||
D|-7-------10--------5--------7------------------7-7--5-5-5--10--10--7-||
A|-5--------8--------3--------5-------0--3/5-----5-5--3-3-3---8---8--5-||
E|---------------------------------------------------------------------||

E|-------------------------------------------------------------------||
B|-------------------------------------------------------------------||
G|-------------------------------------------------------------------||
D|---------7-7--5-5-5---3-5-3-0---0----------------------------------||
A|-0-3/5---5-5--3-3-3----------------3p0h3~--------------------------||
E|-------------------------------------------------------------------||
Comments