Lynyrd Skynyrd - Junkie Chords & Tabs

 

Junkie Chords & Tabs

Lynyrd Skynyrd Chords & Tabs

Version: 1 Type: Tab 0 ratings
1 star 2 stars 3 stars 4 stars 5 stars
comments

Junkie Tab

simple man83 here
Tabbed by bobby c 


|-----------------------------------------------|
|-----------------------------------------------|
|-----------------------------------------------|
|------------------------------0-0(h)2(p)-------|
|2-2-2--2--2--2---2--2-0--2---------------3(p)--|
|0-0-0--3--0--3---0----------------------------3|
[ Tab from: http://www.guitartabs.cc/tabs/l/lynyrd_skynyrd/junkie_tab.html ]
|-----------------------------------------------|
|-----------------------------------------------|
|-----------------------------------------------|
|------------------------------0-0(h)2(p)-------|
|2-2-2--2--2--2---2--2-0--2---------------3(p)--|
|0-0-0--3--0--3---0----------------------------3|

|------------------|
|------------------|
|------------------|
|------------------|
|2-2-2--2--2--2---2|
|0-0-0--3--0--3---0|every thing at this point is palm muted
then it goes like this with no palm muting

|-----------------------------|
|-----------------------------|
|-----------------------------|
|------------0-0(h)2(p)-------|
|--2-0--2---------------3(p)--|
|----------------------------3|


one of skynyrds first songs fun fact
Comments