Lynyrd Skynyrd - I Need You Chords & Tabs

 

I Need You Chords & Tabs

Lynyrd Skynyrd Chords & Tabs

Version: 2 Type: Tab

I Need You Tab

                            LYNYRD SKYNYRD
                              I NEED YOU


standard tuning
EADGBe


----------------------------------8br-5-----------------------------------|
-----------------8---------------------------------------------5-8-8/10---|
---------5-7br-5---7b---7br-5-7-----------7br-5------------5-7------------|
---7---7----------------------------------------7------5-7----------------|
---0----------------------------------------------------------------------|
--------------------------------------------------------------------------|
[ Tab from: http://www.guitartabs.cc/tabs/l/lynyrd_skynyrd/i_need_you_tab_ver_2.html ]
-----------------------------------------------------------------------|
-8-10-8-------------------------------------------------------13-------|
--------9-7----7---7-7-7-7-9-----------12b--12br-9-12-----12b---12r-9--|
------------10---------------10-7--------------------------------------|
-----------------------------------------------------------------------|
-----------------------------------------------------------------------|

-------------------------------------------------------------------------|
-----15-15----15brp13-------------------------15-------------------------|
-/12-------12---------14------12-14b-12-14-12-------12-14-12-------------|
-------------------------------------------------------------14-12---12--|
-------------------------------------------------------------------15----|
-------------------------------------------------------------------------|

----------------------------|
----------------------------|
----------------------------|
-12/14/12-12----12----------|
-------------15-------12----|
-------------------15-------|

theres the intro for you
peace