Lynyrd Skynyrd - I Know Little About Love Chords & Tabs

 

I Know Little About Love Chords & Tabs

Lynyrd Skynyrd Chords & Tabs

Version: 1 Type: Tab 1 rating
1 star 2 stars 3 stars 4 stars 5 stars
comments

I Know Little About Love Tab

   
Song: I Know Little
Band: Lynyrd Skynyrd
Tuning: Standard (E-A-D-G-B-E)
Tabbed By: Kevin Zmetra

h= hammeron
p= pull off
/= slide up
\= slide down
~= tremalo 
5^(7)r5= bend and releace
(8)= ghost note
ah= artificial harmonic

Intro:

|---------5-5---------5-5------|
|-----5h7---------5h7-----6-5--|
|-5h6---------5h6---------7-6--|
|-------------------------8-7--|
|------------------------------|
|------------------------------|

|---------5-5---------5-5-6-5--|
|-----5h7---------5h7-----6-5--|
|-5h6---------5h6---------6-5--|
|------------------------------|
|------------------------------|
|------------------------------|

|-----5---5-5-----5---5-5------|
|-5/7---7-----5/7---7-----6-5--|
|-------------------------7-6--|
|-------------------------8-7--|
|------------------------------|
|------------------------------|

|---------5-5---------5-5-8-7--|
|-----5h7---------5h7-----8-7--|
|-5h6---------5h6---------8-7--|
|------------------------------|
|------------------------------|
|------------------------------|

|-----7-7-7--6-5------5-5-5----12----10-8---------------|
|-5/9--------6-5--5/7-------10----10------10-8---10-10--|
|------------6-5-------------------------------9--------|
|-------------------------------------------------------|
|-------------------------------------------------------|
|-------------------------------------------------------|
				~~~~~
|--------------------------------------|
|-10p8p7---10-8^(10)-10----------------|
|--------9--------------8p7p5---5------|
|-----------------------------7--------|
|--------------------------------------|
|--------------------------------------|

|-------------------------------------------|
|-------10p8---12p8---10--------------------|
|-5h6/9------9------9----9-8-7-5---7--------|
|--------------------------------7---7p5----|
|----------------------------------------7--|
|-------------------------------------------|

|---8p7p5---9p8p6---10p9p7---11p10p8-12-8---------8^(9.5)--|*
|-5------(6)-----(7)------(8)-------------10-8-10----------|
|----------------------------------------------------------|
|----------------------------------------------------------|
|----------------------------------------------------------|
|----------------------------------------------------------|
*in this case hit the 5 and slid up to, but dont hit, 6 etc.

|-12^(14)-12-10-12-10-------------------------------------------------|
|---------------------12^(14)r12p10---10------------------------------|
|-----------------------------------9----5/7-5-7p5-------------5^(7)--|
|--------------------------------------------------7---5-7-7-7--------|
|----------------------------------------------------7----------------|
|---------------------------------------------------------------------|

|-------5-5--------------------------------------|
|-----5-----8-7-7p5------------------------------|
|-5h6---------------5^(7)r5-----7---5-7-5--------|
|---------------------------7p5---7-------7p5----|
|---------------------------------------------7--|
|------------------------------------------------|

|----------------------------------------|
|----------------------------------------|
|-----------------5----------------------|
|-7p5-----7/9---7---7-5h7---5---6-7-7-7--|
|-----7/9-----9-------------5---6-7-7-7--|
|-------------------------3-3-4-4-5-5-5--|

|-----------------------------------------------| Riff A
|-----------------------------------------------|
|-4p2p0------------h2-2-2--4p2p0------------h2--|
|-------4p2p0------h2-2-2--------4p2p0------h2--|
|-------------3^(4)p0-0-0--------------3^(4)p0--|
|-----------------------------------------------|

Verse:
		   Repeat throughout
||---5-5-5-5-5---||  verse
||---5-5-5-5-5---||
||*--6-6-6-6-6--*||
||*--7---7------*||
||---7---7-------||
||---5---5-------||

Chorus:

  pt.1           pt.2           pt.3           pt.4 
|--5-5-5-5-5--||--5-5-5-5-5--||--7-7-7-7-7--||----------------||
|--7-7-7-7-7--||--5-5-5-5-5--||--9-9-9-9-9--||----------------||
|--7-7-7-7-7--||--6-6-6-6-6--||--9-9-9-9-9--||----------------||
|--7---7------||--7---7------||--9-9-9------||---5---6-7-7-7--||
|--5---5------||--7---7------||--7---7------||---5---6-7-7-7--||
|-------------||--5---5------||-------------||-3-3-4-4-5-5-5--||

ORDER: 1,1,2,2,1,1,2,2,3,1,4, Riff A

Verse

Chorus

Solo:

[ Tab from: http://www.guitartabs.cc/tabs/l/lynyrd_skynyrd/i_know_little_about_love_tab.html ]
[-Riff A-]            ah
|-------------------------------------------------|
|-/5-/5\------8-----------------------------------|
|-/6-/6\--7/9---7\5---5^(7)---------5---------5---|
|-------------------7-----------5-----7-----5---7-|
|---------------------------5/7---7-----5/7-------|
|-------------------------------------------------|
                                          ~~
|-------------------------------------------|
|-----8-------------------------------------|
|-7/9---7\5---5-5---------------------------|
|-----------7-----7-2/5-7---5---5-----------|
|-------------------------7---7---7-3---3---|
|-------------------------------------5---5-|

|-------------------------------------------------|
|-------------------------------------------------|
|-5p2-5p2-2--5p2-5p2-2--5p2-5p2-2---------2p0-5-2-|
|-------------------------------------2p0---------|
|-3p0-3p0-0--3p0-3p0-0--3p0-3p0-0-3/5---------3-0-|
|-------------------------------------------------|


|-------------------------------------------------------|
|-----------------------------5p2-----------------------|
|-2---5p2---6p2---7p2---8p2-------2-5-5-2---------------|
|---2-----2-----2-----2-----2-------------2-5-2-5-2-7-7-|
|-------------------------------------------------------|
|-------------------------------------------------------|

|--------------------------12-----------|
|------10------------12/14----15-14-----|
|-9/11----11\9-5/7-7-----------------14-|
|---------------------------------------|
|---------------------------------------|
|---------------------------------------|

|-15----15----15----15----15----15----15----15----|
|----17----17----17----17----17----17----17----17-|
|-------------------------------------------------|
|-------------------------------------------------|
|-------------------------------------------------|
|-------------------------------------------------|
               ~~                             ~~~
|-17-15-17-14-----17-17-17p15----15-------------|
|-------------14--------------17----14p12-14----|
|--------------------------------------------14-|
|-----------------------------------------------|
|-----------------------------------------------|
|-----------------------------------------------|

Riff A

Bridge: 


g ||-----5---5---7^(9)r7^(9)------------------|
u ||-------7---7------------------------------|
i ||--------------------------5---------------|
t ||----------------------------7-5---------7-|
. ||--------------------------------7-6-5-----|
1 ||--------------------------------------8---|
  |                                           
g ||------------------------------------------|
u ||------------------------------------------|
i ||-2-2--------------------2-2---------------|
t ||-2-2--------------------2-2---------------|
. ||-0-0--------------------0-0---------------|
2 ||------------------------------------------|
  |                                
b ||------------------------------------------|
a ||------------------------------------------|
s ||------------------------------------------|
s ||-5-5--------------------5-5---------------|

g ||--(17)r15-12-15-14-12-----------12------------------------|
u ||----------------------15-13--------13---------12-13-14-15-|
i ||----------------------------14--------14---14-------------|
t ||----------------------------------------------------------|
. ||----------------------------------------------------------|
1 ||----------------------------------------------------------|
  |                                                        
g ||----------------------------------------------------------|
u ||----------------------------------------------------------|
i ||-2-2--------------------------2---------------------------|
t ||-2-2--------------------------2---------------------------|
. ||-0-0--------------------------0---------------------------|
2 ||----------------------------------------------------------|
  |                                                        
b ||----------------------------------------------------------|
a ||----------------------------------------------------------|
s ||------------------------------5----------7-----2--3--4--5-|
s ||-5-5----------------------------------------5-------------|

Paino Solo: Chorus Chord Progression

Verse: stecatto at end (listen to it)

Last Chorus

ORDER: 1,1,2,2,1,1,2,2,3,1,4,4,4
                      "Baby..."
|------------------------------------------------------|
|------------------------------------------------------|
|-4p2p0------------h2----------4p2p0------------h2-2-2-|
|-------4p2p0------------------------4p2p0------h2-2-2-|
|-------------3^(4)p0----------------------3^(4)p0-0-0-|
|------------------------------------------------------| 


Comments