Lynyrd Skynyrd - Gimme Three Steps Chords & Tabs

 

Gimme Three Steps Chords & Tabs

Lynyrd Skynyrd Chords & Tabs

Version: 3 Type: Bass Tab

Gimme Three Steps Bass Tab

G]----------------------------------------------7----------------]
D]----------------------77-------7----------7-9------------------]
A]--5-5-55-5---5-----------9-7-9--9-5-5-5/9----------------------]
E]--------7-7-5-7-5-7--------------------------------------------]

G]---------------------------------------------------------------]
D]-----------------------------------0-2-------------------------]
A]--5------5--5----------0------0-0-2---0-2-0--------------------]
E]---7-55-7----7-55-7-----2-00-2---------------------------------]
[ Tab from: http://www.guitartabs.cc/tabs/l/lynyrd_skynyrd/gimme_three_steps_btab_ver_3.html ]
G]--------------------------------------------------------------------]
D]------------------------------2--------2----------------------------]
A]--5------5--5--------------2-4-4-0--2-4-4-2/5------5--5-------------]
E]---7-55-7----7-55-7----00-4------------------7-55-7----7-55-7-------]

G]-----------------------------------------------------------------7--]
D]--------------------2-----------------------77------7---------7-9---]
A]-----------------2-4-4-2/5------5--5-----------9-7-9-9-5-5-5/9------]
E]--333333-2-0-0-4----------7-55-7----7-55-7--------------------------]