Lynyrd Skynyrd - Down South Juckin Chords & Tabs

 

Down South Juckin Chords & Tabs

Lynyrd Skynyrd Chords & Tabs

Version: 1 Type: Bass Tab 0 ratings
1 star 2 stars 3 stars 4 stars 5 stars
comments

Down South Juckin Bass Tab

   
Down South Juckin' -  Lynyrd Skynyrd

Intro
G|---------------------------------------------------------------------------------------------|
D|-------------------------------------------------------------------------------------11-8----|
A|----------------------4-5-6-------------------------------------------------------11------11-|
E|-R----4-4-4-4-4-4-4-4-------1-2-3-4-4-4-4-4-4-4-4-4-4-4-4-4-4-4-4-4-4-4-4-4-4-4-4------------|

  Verse
G|----------------------------------------------------------------------------------------------
D|----------------------------------------------------------------------------------------------
A|----------------------------------------------------------------------------------------------
E|-4-4-4-4-4-4-4-4-4-4-4-4-4-4-4-4-4-4-4-4-4-4-4-4-4-4-4-4-4-4-4-4-4-4-4-4-4-4-4-4-4-4-4-4-4-4-4

[ Tab from: http://www.guitartabs.cc/tabs/l/lynyrd_skynyrd/down_south_juckin_btab.html ]
------------------------------------------------------------------------------------------------
------------------------------------------------------------------------------------------------
---6-6-6-6-6-6-6-6-6-6-6-6-6-6-6-6---------------------------------4-4-4-4-4-4-4-4-4-4-4-4-4-4-4
-4---------------------------------4-4-4-4-4-4-4-4-4-4-4-4-4-4-4-4------------------------------


-----------------------------------------------------------------|
-----------------------------------------------------------------|
-4------------------6-6-6-6-6-6-6-6------------------4-5-6-------|
----4-4-4-4-4-4-4-4-----------------4-4-4-4-4-4-4-4--------1-2-3-|


 Repeat verse here (leave off last 6 notes)

  Solo
G|----------------------------------------------------------------------------------------------
D|----------------------------------------------------------------------------------------------
A|---------------------------4-4-4-4-4-4-4-4-4-4-4-4-4-4-2---------------------------------4-4-4
E|-6-6-4-6-6-4-6-6-4-6-6-6-6-------------------------------0-0-0-0-0-0-0-0-0-0-0-0-0-0-0-0------


---------------------------------------------------|
---------------------------------------------4-5-6\|
-4-4-4-4---------------4-4-4-4-4-4-5-6-4-5-6-------|
---------6-6-6-6-6-6-6-----------------------------|


 Repeat the verse here

 Outro
G|-4---------------------|
D|---6-4-6-6-4-----------|
A|-------------4-6-4-----|
E|-------------------6-4-|

Tabbed by Frankman


Comments