Lynyrd Skynyrd - Double Trouble Chords & Tabs

 

Double Trouble Chords & Tabs

Lynyrd Skynyrd Chords & Tabs

Version: 2 Type: Tab 0 ratings
1 star 2 stars 3 stars 4 stars 5 stars
comments

Double Trouble Tab

   
Lynyrd Skynyrd
 "Double Trouble"
 GIMME BACK MY BULLETS
 Tabbed by Dave
 Ripped By Olof

A more simple yet more "lynyrd-like" tab here, ripped from Dave´s original tab. played
with a nice distorsion and lots of palm muting. In the original recording there´s a lot
of small quick hammer-ons that fill out the gaps in this fast&lovely blues walk. Of
course it´s designed for at least two guitarist but that's beyond the scope of this
simple tab.

Enjoy!

LICK 1:
E-----------------------------------------------------------|
B----------(5)-~--------------------------------------------|
G-----------5-----------------------------------------------|
D-----7--5----7---5------7--5---7---(5h7h5h7h5)-------------|
A-0------------------0--------------------------------------|
E-----------------------------------------------------------|

LICK 2:
E-----------------------------------------------------------|
B------------------6----------------------------------------|
G------------7--5-----7--5------7--5—7b--5------------------|
D-------------------------------------------7---------------|
A—(0-3-4)-5-----------------5-------------------------------|
E-----------------------------------------------------------|
[ Tab from: http://www.guitartabs.cc/tabs/l/lynyrd_skynyrd/double_trouble_tab_ver_2.html ]
LICK 3:
E-----------------------------------------------------------|
B--------8---------------6----------------------------------|
G-----9----9--9--------7---77--5----------------------------|
D----------------------------------7------------------------|
A--7------------6--5-------------------5--------------------|
E-----------------------------------------------------------|

Lick 1
Eleven times I been busted, eleven times I been to jail
Lick 1
Some of the times I been there nobody would go my bail
Lick 2                                              Lick 1
Well it seems to me, lord that this ol' boy just don't fit
Lick 3
Well I can jump in a rosebush and come out smelling like sh...


Lick 1
Those misters dressed in blue never done so right by me
Lick 1
Some of the times I was innocent but the judge said guilty
Lick 2					Lick1
I'm not one to complain now son I tell you true
Lick 3                                                   Lick 1
When the black cat cross your trail, lord, it comes in misery times two

Lick 2				Lick 1
Double trouble--that's what my friends all call me
Lick 3
I said, double trouble

T-r-o-u-b-l-e

Lick 1
Well I was born down in the gutter with a temper as hot as fire
Lick 1
Spent ninety days on a peat farm just doin' the county's time
Lick 2
Well now, even mama said son you're bad news
Lick 3
And it won't be too long before someone puts one through you

(chorus)

(chorus)
Comments