Lynn Strait - Sad Air Chords & Tabs

 

Sad Air Chords & Tabs

Lynn Strait Chords & Tabs

Version: 1 Type: Tab 0 ratings
1 star 2 stars 3 stars 4 stars 5 stars
comments

Sad Air Tab

this may not be right but it sounds pretty good
[ Tab from: http://www.guitartabs.cc/tabs/l/lynn_strait/sad_air_tab.html ]
|---------------------|  |-----------------------|
|---------------------|  |-----------------------|
|---------------------|  |-----------------------|
|---------------------|  |-----------------------|
|---------------------|  |-----------------------|
|---------------------|  |-----------------------|
|-0-0-8-8-8-8-8/7-0-7-|  |-0-0-8-8-8-8-8/10-0-10-|

|---------------------|
|---------------------|
|--------------1------|
|-----------3-----3---|
|--------1------------|
|-0-0-b2--------------|

the rhythm is pretty easy but you have to listen to it.
Comments