Lyndsay Diaries - Mixtapes And Memories Chords & Tabs

 

Mixtapes And Memories Chords & Tabs

Lyndsay Diaries Chords & Tabs

Version: 2 Type: Tab 0 ratings
1 star 2 stars 3 stars 4 stars 5 stars
comments

Mixtapes And Memories Tab

Verse: "and i promise..." 2nd verse "and i know not..."
d|----0--2--4--0--0--0-------------------------------------------------------|
d|----0--0--0--0--0--0-------------------------------------------------------|
a|----0--0--0--0--0--0-------------------------------------------------------|
D|----0--0--0--0--0--0-------------------------------------------------------|
A|----0--0--0--9--7--5-------------------------------------------------------|
D|----0--0--0--9--7--5-------------------------------------------------------|

Chorus: "and i've thought about..."
d|----0---0---0--------------------------------------------------------------|
d|----0---0---0--------------------------------------------------------------|
a|----0---0---0--------------------------------------------------------------|
D|----0---0---0--------------------------------------------------------------|
A|----7---9---5--------------------------------------------------------------|
D|----7---9---5--------------------------------------------------------------|

for the next part ("of you, and me...") plays the same only slower.
[ Tab from: http://www.guitartabs.cc/tabs/l/lyndsay_diaries/mixtapes_and_memories_tab_ver_2.html ]
Verse (end of 2nd): "we should share this night, and grace your smile..."
d|----0--2--4--0--0--0--0----------------------------------------------------|
d|----0--0--0--0--0--0--0----------------------------------------------------|
a|----0--0--0--0--0--0--0----------------------------------------------------|
D|----0--0--0--0--0--0--0----------------------------------------------------|
A|----0--0--0--9--7--9--5----------------------------------------------------|
D|----0--0--0--9--7--9--5----------------------------------------------------|

Bridge: "the hours pass by..."
d|----0--0--0--0-------------------------------------------------------------|
d|----0--0--0--0-------------------------------------------------------------|
a|----0--0--0--0-------------------------------------------------------------|
D|----0--0--0--0-------------------------------------------------------------|
A|---12--x--9--5-------------------------------------------------------------|
D|---12-11--9--5-------------------------------------------------------------|

"ever..."
d|----0---0---0------------ d|----0---0---0-----
d|----0---0---0------------ d|----0---0---12----
a|----0---0---0------------ a|----0---12--12---
D|----0---0---0------------ D|----0---0---0-----
A|----7---9---5------------ A|----x---x---x----
D|----7---9---5------------ D|----12--12--12---
Comments