Lyndsay Diaries - Hold Chords & Tabs

 

Hold Chords & Tabs

Lyndsay Diaries Chords & Tabs

Version: 1 Type: Tab 0 ratings
1 star 2 stars 3 stars 4 stars 5 stars
comments

Hold Tab

Song: Hold
Artist: The Lyndsay Diaries
Tuning: Standard
Tabbed by: John


Intro/Verse
E|------------------------------------------------------------------------|
B|-----3--------10-------3--------10-------3--------10--------3------333--|
G|-----0--------0--------0--------0--------0--------0---------0------000--|
D|---4--------9--------4--------9--------4--------9---------2----2-2-222--|
A|-5-----5/10------0-5-----5/10------0-5-----5/10-------0-3------3-3------|
E|------------------------------------------------------------------------|


Chorus
Guitar 1 (Acoustic)
E|----------------------------------------------|
B|--8--8--8-8-8--7-7-777--3-3-333--3-3-333------|
G|--0--0--0-0-0--0-0-000--0-0-000--0-0-000------|
D|--9--9--9-9-9--x-x-xxx--4-4-444--2-2-222------|
A|-10-10-101010--7-7-777--5-5-555--3-3-333------|
E|----------------------------------------------|
[ Tab from: http://www.guitartabs.cc/tabs/l/lyndsay_diaries/hold_tab.html ]
Guitar 2 (Electric, light distortion)
E|------------------------------------------------------|
B|--8--8--8-8-8--8-101010-888--8-101010-888--3-3-333----|
G|--0--0--0-0-0--0--0-0-0-000--0--0-0-0-000--0-0-000----|
D|--9--9--9-9-9--x-------------x-------------2-2-222----|
A|-10-10-101010--7-------------5-------------3-3-333----|
E|------------------------------------------------------|


Bridge
Guitar 1 (Acoustic)
E|---------------------|
B|-7-7-777--3-3-333----|
G|-0-0-000--0-0-000----|
D|-x-x-xxx--2-2-222----|
A|-7-7-777--3-3-333----|
E|---------------------|

Guitar 2 (Electric, light distortion)
E|----------------------------------------------------------------------|
B|-7-8-888-888-887--7-8-888-888-887--7-8-888-888-887--7-8-8887-3-33333--|
G|-0-0-000-000-000--0-0-000-000-000--0-0-000-000-000--0-0-0000-0-00000--|
D|-x----------------x----------------x----------------x--------2-22222--|
A|-7----------------7----------------7----------------7--------3-33333--|
E|----------------------------------------------------------------------|


Outro
E|--------------------------------------------------------0--|
B|-----3--------10-------3--------10-------3--------10----1--|
G|-----0--------0--------0--------0--------0--------0-----0--|
D|---4--------9--------4--------9--------4--------9-------2--|
A|-5-----5/10------0-5-----5/10------0-5-----5/10-------0-3--|
E|-----------------------------------------------------------|


Not entirely sure about chorus and bridge.  Send mistakes and comments to jdl918@yahoo.com
Comments