Lyndsay Diaries - Consequences Of Learning How To Fly Chords & Tabs

 

Consequences Of Learning How To Fly Chords & Tabs

Lyndsay Diaries Chords & Tabs

Version: 1 Type: Tab 0 ratings
1 star 2 stars 3 stars 4 stars 5 stars
comments

Consequences Of Learning How To Fly Tab

Capo 4 These are the main riffs.

Intro/Verse: [Still sort of strum while you pick the notes]
e|--0-0-0-0-0-0----0-----0--------0--------------2-3-3---|
B|--0-0-0-0-0-0----0-----0--------0------1-1-1---3-3-3---|
G|--0-0-0-0-0-0----0-----0--------0-0h2--2-2-2---4-4-4---|
D|--2-2-2-2-2-2--5-5-5\2-2--------0------2-2-2-----------|
A|--2-2-2-2-2-2----0-----0--2-2/3-3----------------------|
E|--0-0-0-0-0-0----0-----0--------0----------------------|
[ Tab from: http://www.guitartabs.cc/tabs/l/lyndsay_diaries/consequences_of_learning_how_to_fly_tab.html ]
Pre-Chorus
e|-0---0---------------------------|
B|-0---0---3----3-------3-3-3-3----|
G|-0---0---0----0-------0-0-0-0----|
D|-2---2---2----2---x2--2-2-2-2----|
A|-2---2---3----3-------3-3-3-3----|
E|-0---0---------------------------|

Chorus 1
e|-------------------------------------------------------------------------|
B|-1-1-1-1-1-1-3-3-3-3-3-3-1-1-1-1-1-1-3-3-3-3-3-3-1-1-1-1-1-1-3-3-3-3-3---|
G|-0-0-0-0-0-0-0-0-0-0-0-0-0-0-0-0-0-0-0-0-0-0-0-0-0-0-0-0-0-0-0-0-0-0-0---|
D|-2-2-2-2-2-2-0-0-0-0-0-0-2-2-2-2-2-2-0-0-0-0-0-0-2-2-2-2-2-2-0-0-0-0-0---|
A|-3-3-3-3-3-3-2-2-2-2-2-2-3-3-3-3-3-3-2-2-2-2-2-2-3-3-3-3-3-3-2-2-2-2-2---|
E|-0-0-0-0-0-0-3-3-3-3-3-3-0-0-0-0-0-0-3-3-3-3-3-3-0-0-0-0-0-0-3-3-3-3-3---|
Comments