Lynch Stephen - Mothers Day Song Chords & Tabs

 

Mothers Day Song Chords & Tabs

Lynch Stephen Chords & Tabs

Version: 1 Type: Tab 0 ratings
1 star 2 stars 3 stars 4 stars 5 stars
comments

Mothers Day Song Tab

   
Artist: Stephen Lynch
Song: “Mother’s Day Song”
Album: A Little Bit Special (2000)
Capo: NO

Song:
------------
--------2---
------2-----
----2-------
--0---------
------------

----------------------------------------------------
--------2-----------------------2-------------------
------2---2-------------------2---2-----------------
----2-------2---------------2-------2---------------
--0-------------2---2---2-0-------------2---2---2---
--------------3---0---3---------------3---0---3-----
Thank you, dear lady, for being my mom.
[ Tab from: http://www.guitartabs.cc/tabs/l/lynch_stephen/mothers_day_song_tab.html ]
----------------------------------------------------
--------2-----------------------2-------------------
------2---2-------------------2---2-----------------
----2-------2---------------2-------2---------------
--0-------------2---2---2-0-------------2---2---2---
--------------3---0---3---------------3---0---3-----
You did all my homework; you took me to prom.

   B            A   D
And I was the only guy who got lucky that…

----------------------------------------------------
--------2-----------------------2-------------------
------2---2-------------------2---2-----------------
----2-------2---------------2-------2---------------
--0-------------2---2---2-0-------------2---2---2---
--------------3---0---3---------------3---0---3-----
…night.

Chords:
B:  X24442
A:  X02220
D:  XX0232
Comments