Lynch Stephen - Gynecologist Chords & Tabs

 

Gynecologist Chords & Tabs

Lynch Stephen Chords & Tabs

Version: 1 Type: Tab 1 rating
1 star 2 stars 3 stars 4 stars 5 stars
comments

Gynecologist Tab

Stephen Lynch
Gynecologist
Kieran McEwan


Notation
/=slide up
v=bend vibrato


Intro

e|------------------------|
B|-2--2-2/3---2--2-2/3----|
G|-2--2-2/3---2--2-2/3----|
D|-2--2-2/3---2--2-2/3----|
A|------------------------|
E|------------------------|


e|------------------------|
B|-2--2-2/3-2--3-2--------|
G|-2--2-2/3-2------3-2----|
D|-2--2-2/3-2----------3-2|
A|------------------------|
E|------------------------|


e|------------------------|
B|-2--2-2/3---2--2-2/3----|
G|-2--2-2/3---2--2-2/3----|
D|-2--2-2/3---2--2-2/3----|
A|------------------------|
E|------------------------|

[ Tab from: http://www.guitartabs.cc/tabs/l/lynch_stephen/gynecologist_tab.html ]
e|------------------------|
B|-2--2-2/3-2----------2-3|
G|-2--2-2/3-2------2-3----|
D|-2--2-2/3-2--2-3--------|
A|------------------------|
E|------------------------|

e|------------------------|
B|-2--2-2/3---2--2-2/3----|
G|-2--2-2/3---2--2-2/3----|
D|-2--2-2/3---2--2-2/3----|
A|------------------------|
E|------------------------|


e|------------------------|
B|------------------------|
G|------------------------|
D|------------------------|
A|--1v--------------------|
E|------------------------|

Main Verse

e|------------------------|
B|-2--2-2/3---2--2-2/3----|
G|-2--2-2/3---2--2-2/3----|
D|-2--2-2/3---2--2-2/3----|
A|------------------------|
E|------------------------|

over and over and over
Comments