Lynch George - Mr Scary Chords & Tabs

 

Mr Scary Chords & Tabs

Lynch George Chords & Tabs

Version: 1 Type: Tab 0 ratings
1 star 2 stars 3 stars 4 stars 5 stars
comments

Mr Scary Tab

   
#----------------------------------PLEASE NOTE---------------------------------#
#This file is the author's own work and represents their interpretation of the #
#song. You may only use this file for private study, scholarship, or research. #
#------------------------------------------------------------------------------##
Date: Sat, 25 Nov 1995 22:48:31 -0500
From: Joel 
Subject: TAB: "mr. scary" by george lynch

	"Mr. Scary" - George Lynch
	Transcribed by: Kenn Chipken
	Tabbed by: Joel Firestone

This TAB transcription was created using TAB MASTER version 1.0
--------------------------------------------------------------------

    h                           h                   p p     p   p   h
e:---------------------------------------------------------------------------|
B:---------------------------------------------------------------------------|
G:---------------------------------------------------------------------------|
D:-----------------4-----5-----2-4-------------------------------------------|
A:-------------------------------------------------5-4-2---4-2---------------|
E:-0-2-2-2-2-2-2-2---2-2---2-2-----2-2-2-2-2-2-2-2-------5-----5-4-0-2-2-2-2-|
  |p.m.-------------------------------------------|               |p.m.------



		     h                    s  s  s    h                        
e:---------------------------------------------------------------------------|
B:---------------------------------------------------------------------------|
G:------------------------------------0--------------------------------------|
D:------4-----5-----2-4---------------0-3-/4-/6-/9------------------4-----5--|
A:---------------------------------------------------------------------------|
E:2-2-2---2-2---2-2-----2-2-2-2-2-2-2---------------0-2-2-2-2-2-2-2---2-2---2|
  -----------------------------------|             |p.m.---------------------



      h                   p p     p   p   h                           h
e:---------------------------------------------------------------------------|
B:---------------------------------------------------------------------------|
G:---------------------------------------------------------------------------|
D:---2-4-------------------------------------------------4-----5-----2-4-----|
A:-----------------------5-4-2---4-2-----------------------------------------|
E:-2-----2-2-2-2-2-2-2-2-------5-----5-4-0-2-2-2-2-2-2-2---2-2---2-2-----2-2-|
  ----------------------|               |p.m.--------------------------------



                                                           h p p
e:---------------------------------------------------------------------------|
B:---------------------------------------------------------------------------|
G:---------------------------------------------------------------------------|
D:------------------------------------------------4---5---4-5-4-2------------|
A:--------------------------------4---5---4---------------------------4---5--|
E:2-2-2-2-2-2-5-5-5-5-4-4-4-4-2-2---2---2---2-2-2---2---2---------2-2---2---2|
  -----------|               |p.m.-----------------------|       |p.m.-------


        p p     p   p                                  p p
e:---------------------------------------------------------------------------|
B:---------------------------------------------------------------------------|
G:---------------------------------------------------------------------------|
D:-----------------------------------------4---5---5--4-5-2------------------|
A:-4---5-4-2---4-2---------4---5---4----------------------------4---5---4-0-4|
E:---2-------5-----5-4-2-2---2---2---2-2-2---2---2----------2-2---2---2------|
  --------------------------------------------------|      |p.m.-------------

                  
                  
e:---------------|
B:---------------|
G:---------------|
D:---------------|
A:---------------|
E:-5-5-5-5-4-4-4-|
  ---------------|


                                  s 
e:---------------------------------------------------------------------------|
B:-----------7---------------------------------------------7-----------------|
G:--5--8--9--8--8-~~~~~~~~~~~~--8-/9-~~~~~~~~~~~--5--8--9--8--8-~~~~~~~~~~~~-|
D:--7--10-11----10~~~~~~~~~~~~--10/11~~~~~~~~~~~--7--10-11----10~~~~~~~~~~~~-|
A:---------------------------------------------------------------------------|
E:---------------------------------------------------------------------------|





                       h  p    p      h  p    p      h  p      p  s     p
e:--------------------9-10-9---------9-10-9---------9-10-9-------------------|
B:---------------------------12-9-----------12-9-----------9------/17-15-14--|
G:-8-/9-~~~~~~~~~--11-------------11-------------11----------11-9------------|
D:-10/11~~~~~~~~~------------------------------------------------------------|
A:---------------------------------------------------------------------------|
E:---------------------------------------------------------------------------|




                  p  s     p  h  p  s  h  p  VVVVVVV
e:---------------------------------------------------------------------------|
B:--14----14--------------------------------------------------7--------------|
G:16---16----16-16-14\13-----------------------------5--8--9--8--8-~~~~~~~~~~|
D:-----------------------16-13-16-14/16-19-16--------7--10-11----10~~~~~~~~~~|
A:---------------------------------------------------------------------------|
E:---------------------------------------------------------------------------|




      s                                         s            h           h  
e:---------------------------------------------------------------------------|
B:---------------------------7-----------------------------------------------|
G:--8-/9-~~~~~~~~~--5--8--9--8--8-~~~~~~--10--8-/9-~~~~~~~~------------------|
D:--10/11~~~~~~~~~--7--10-11----10--------12--10/11~~~~~~~~-7-9-9-9-9-9-9-7-7|
A:---------------------------------------------------------------------------|
E:---------------------------------------------------------------------------|


                                                                 p  p  s
  a.h.    h  p               rake            s         -1  -1 -1 -1 -1  -1VVV
e:--------------------------------------20-----------------------------------|
B:---------------------------------------------------------------------------|
G:------------------------11---------18----18\17------18-18-18-18-17-16\14---|
D:-9---7-9-10-9-7-9-7-9-7-------x-16-----------------------------------------|
A:-----------------------------x---------------------------------------------|
E:----------------------------x----------------------------------------------|




  VVVV (gradual bend)VVVVVV    p        a.h.                           p  
e:--------------------------4---------------------------7-----7b(8)-4--------|
B:----------------------------7-4-------------------------------------7-4----|
G:-----7b(9)----------------------6---4-6~~~~~~~~~~~~~--------------------6b(|
D:---------------------------------------------------------------------------|
A:---------------------------------------------------------------------------|
E:---------------------------------------------------------------------------|




         VVVVV (w\Flanger)------------|                             s    
e:-------------13-----14-----15-----16---------------------------------------|
B:-------------12-----13-----14-----15------------7--------------------------|
G:7)--4-6------13-----14-----15-----16---5--8--9--8--8-~~~~~~~~~--8-/9-~~~~--|
D:-------------//-----//-----//-----//---7--10-11----10~~~~~~~~~--10/11~~~~--|
A:---------------------------------------------------------------------------|
E:---------------------------------------------------------------------------|




                                         p            s                s
e:---------------------------------------------------------------------------|
B:------------7--------------------------------------------------------------|
G:---5--8--9--8--8-~~~--8--7--5--7---7--7--6----------/9--9--8~~~~~~~--/7--7-|
D:---7--10-11----10~~~--10-9--7--9---7--7------------------------------------|
A:---------------------------------------7-9---------------------------------|
E:---------------------------------------------------------------------------|




                       s                           h p
e:---------------------------------------------------------------------------|
B:---------------------------------------------------------------------------|
G:-6~~~~~~~-------14-14\-----------------------------------------------------|
D:----------14-16-14-14\------------------4---5---4-5-2----------------------|
A:------------------------4---5---4-------------------------4---5---4--------|
E:--------------------2-2---2---2---2-2-2---2---2-------2-2---2---2---2-2-2-2|
                     |p.m.-----------------------|     |p.m.-----------------


                                                         h   p       h h
e:---------------------------------------------------------------------------|
B:--------------------------------------------------------------------------3|
G:-------------9--9b(11)-8~~~~~~~~--7--7-9-6~~~~~~~~~~~-----------2-------2-2|
D:----------------------------------------------------------2-0-4-4-0-2-4-4--|
A:------------------------------------------------------0-4-4-2-5---2-4-5----|
E:-2-2-2-2-5-3------------------------------------------2-5------------------|
  ------------|                                         (two guitars)



        s                         
e:---------------------------------------------------------------------------|
B:-----5/3-7-6~~~~~~~~----------------14------12------10------9--------------|
G:---4-4/4-7-6~~~~~~~~--12b(14)~~~~~~-16b(18)-14b(16)-12b(14)-11b(13)--11~~--|
D:-6-6-----------------------------------------------------------------7--10-|
A:-7-------------------------------------------------------------------------|
E:---------------------------------------------------------------------------|




                   s         s         
e:-----------------------------------------------------------------16b(17)-x\|
B:--------------------------------------7-----------10-9---------------------|
G:---8-----------8-/10~~~~~~~\-5--8--9--8--8-~~~~~~------11~~~~~~~-----------|
D:11---10~~~~~~~-10/11~~~~~~~\-7--10-11----10~~~~~~-11-9-7~~~~~~~~-----------|
A:---------------------------------------------------------------------------|
E:---------------------------------------------------------------------------|




    h  p        h  p     h  h  p  p     h  p     p  h  p     h  p  h  p  
e:---------14----------14-16-17-16-17----------17-16-17-14-------------------|
B:14-15-14----14-15-14----------------14-15-14-------------14-15-14-15-14----|
G:------------------------------------------------------------------------16-|
D:---------------------------------------------------------------------------|
A:---------------------------------------------------------------------------|
E:---------------------------------------------------------------------------|




             s   h p
e:-----------------------------------------------------------------------11-13|
B:14----14--------------------12-14-13--~~~~----12-13-14-14-----------13-13-15|
G:---16----16\-11-9-11-11~~~~~---------------14-------------11~~~~~~~-13------|
D:----------------------------------------------------------------------------|
A:----------------------------------------------------------------------------|
E:----------------------------------------------------------------------------|



     p  p              p  p              p  p              p  p   s
e:-14-13-11----11-13-14-13-11----11-13-14-13-11----11-13-14-13-11-----------|
B:-16-15-13-13-13-15-16-15-13-13-13-15-16-15-13-13-13-15-16-15-13-/20b(21)~~|
G:----------13----------------13----------------13--------------------------|
D:--------------------------------------------------------------------------|
A:--------------------------------------------------------------------------|
E:--------------------------------------------------------------------------|




                                         h  p
e:-----20b(21)-20----16------------------------------------------------------|
B:~~~----------//----//---19---17-----------------------------------------7--|
G:------------------------//------18---17-18-17------------------5--8--9--8--|
D:--------------------------------//------------18---16~~~~~~~~--7--10-11----|
A:---------------------------------------------------------------------------|
E:---------------------------------------------------------------------------|
                                                                      (* pull



    *  *    s                                            h
e:---------------------------------------------------------------------------|
B:----------------------------7----------------------------------------------|
G:8~~~~~~-8-/9~~~~~~-5--8--9--8--8~~~~~~~-8--7-5-7--7--7--6~~~~~~~------9--9-|
D:10~~~~~-10/11~~~~~-7--10-11----10~~~~~~-10-9-7-9--7--7---------------------|
A:------------------------------------------------------7-9------------------|
E:---------------------------------------------------------------------------|
   up on bar)

 
[ Tab from: http://www.guitartabs.cc/tabs/l/lynch_george/mr_scary_tab.html ]
            s                                       h p
e:---------------------------------------------------------------------------|
B:---------------------------------------------------------------------------|
G:-8~~~~~~~-/7--7--6---------------------------------------------------------|
D:---------------------------------------------4---5---4-5-2-----------------|
A:-----------------------------4---5---4-------------------------4---5---4---|
E:-------------------------2-2---2---2---2-2-2---2---2-------2-2---2---2---2-|
                          |p.m.-----------------------|     |p.m.------------



   p p     p   p                         *(w\feedback)                      s
e:---------------------------------------------------------------------------|
B:---------------------------------------------------------------------------|
G:----------------9--9b(11)-8----\7--7b(9)-6*------6-----4-----7-----6-------|
D:-----------------------------------------------6-----------4---------------|
A:5-4-2---4-2----------------------------------4-----4-4---4-----4-4---4-4-2/|
E:------5-----5-4------------------------------------------------------------|
  ---------------|                            |p.m.-----------------------|


                            a.h.  s                          s
e:---------------------------------------------------------------------------|
B:-------------------------------------------------------------------14------|
G:------6-----4-----7-------6~~~~----6-----4-----7-----6-------------16b(18)-|
D:----6-----------4-----4-4----------6---6-----4-7-----6-4-4-----------------|
A:4-4-----4-4---4-----4----------2/4---4-4---4-----4-4-------2/4-4-4---------|
E:---------------------------------------------------------------------------|
   |p.m.-------------------|        |p.m.-------------------| 



                                        s                           s
e:------------------------12b(14)~~~~~---------------------------------------|
B:12------10------9----------------------------------------------------------|
G:14b(16)-12b(14)-11b(13)----------------------------------------------------|
D:---------------------------------------------------------------------------|
A:-----------------------------------------------------------7-----4/6-------|
E:-------------------------------------2/4-4-4-7-4-4-4-4-4-4---4-4-----2-4-4-|
                                          |p.m.-------------------|   |p.m.--



                     s       p                 h           s
e:---------------------------------------------------------------------------|
B:---------------------------------------------------------------------------|
G:--------4~~~~~~~~----------------------------------------------------------|
D:--------2------------------------------------------------------------------|
A:--2-------------------------------------7---4-6---4------------------------|
E:4---4-4-4---------2/4-4-4-7-4-4-4-4-4-4---4-----7---6-7-2/4-4-4-7-4-0-2--2-|
  -------|             |p.m.-----------------|               |p.m.----------|



               s       p                   h   s                 h
e:---------------------------------------------------------------------------|
B:---------------------------------------------------------------------------|
G:---------------------------------------------------------------------------|
D:---------------------------------------------------------------------------|
A:1---2---1-------------------------7-----4-6---------------7---4-6---4------|
E:--2---2---2-2/4-4-4-7-4-4-4-4-4-4---4-4-----2/4-4-4-7-4-4---4-----7---6-7-2|
                 |p.m.-------------------|       |p.m.---------------------|



  s       p                   h   h                    s   p
e:---------------------------------------------------------------------------|
B:---------------------------------------------------------------------------|
G:---------------------------------------------------------------------------|
D:---------------------------------------------------------------------------|
A:---------------------7-----4-6-----------------1----1/2-7-6---4~~~~~~~--7-7|
E:/4-4-4-7-4-4-4-4-4-4---4-4-----2-4-4-4-7-4-0-0-2--2-2/4-----7--------------|
    |p.m.---------------------------------------|          


  p                                     h p p h  
e:---------------------------------------------------------------------------|
B:---------------------------------------------------------------------------|
G:----------------------------------------------------------9-------9----9---|
D:-------------6-4b(6)-4--6-6b(7)--6-4-6-7-6-4-6~~~~~~~~~~\------------------|
A:-6-4-4-4-7-4------------------------------------------------11-11---11---11|
E:---------------------------------------------------------------------------|




         s         p   h p              s             h               s 
e:---------------------------------------------------------------------------|
B:---------------------------------x-9-9\7---7b(9)---8-9-8-7---7------/12----|
G:-9----9\8---8---9-6-6-4-6~~~~~~-x----------------9---------9---9--\-----11-|
D:-----------------------------------------9---------------------------------|
A:---11-----9---9------------------------------------------------------------|
E:---------------------------------------------------------------------------|




        h  p      h  p      h  p      h  p      h  p h  p             h  p  h 
e:---------------------------------------------------------12b(13)-----------|
B:9----9-12-9----9-12-9----9-12-9----9-12-9----9-12-9-12-9-------------------|
G:--12--------12--------12--------12--------12----------------------12-13-12-|
D:---------------------------------------------------------------------------|
A:---------------------------------------------------------------------------|
E:---------------------------------------------------------------------------|




    p  h  p        h  p       p  h  p     p     h  p     p     a.h.
e:---------------------------------------------------------------------------|
B:------------12---------------------------------------------------------12b(|
G:13-12-13-12----12-13-12---13-12-16-12-------12-13-12-----------------------|
D:--------------------------------------14-11----------14-11---11~~~~~~~-----|
A:---------------------------------------------------------------------------|
E:---------------------------------------------------------------------------|




         p h  s  p       p              p  p                        s    p    
e:---9-----------------------------------------------------------------------|
B:14)--12-9-12\11-9----10-9----9----9----------------------------------------|
G:------------------11------11---12---12-11-9-11-9-9-8-9-8----8-------6-----9|
D:---------------------------------------------------------11---11-9\-6-9-6--|
A:---------------------------------------------------------------------------|
E:---------------------------------------------------------------------------|



      *             h         t            s  h  h  p     h  p  h  h  h
e:-----------------------------------------------9-11-12-11-11-12-11-12-14-16|
B:----------------7-7--6-7--------19b(21)-b(19)\-----------------------------|
G:b(11)--*---b(9)------------------------------------------------------------|
D:---------------------------------------------------------------------------|
A:---------------------------------------------------------------------------|
E:---------------------------------------------------------------------------|




     s  h  p  s h  p s  h  p  h  h  p  h  p  h     p     h            p  p 
e:-12\11-12-11\9-11-9/11-12-11-12-14-12-14-12-14-------19-21b(23)b(21)-17-16-|
B:-----------------------------------------------21-22-----------------------|
G:---------------------------------------------------------------------------|
D:---------------------------------------------------------------------------|
A:---------------------------------------------------------------------------|
E:---------------------------------------------------------------------------|




    p  h     h  p     p  p     h  h     h  p       p h h   h h
(w\feedback)                                                   
e:---------16-17-16---------------------------------------4-5-4--------------|
B:19-16-17----------19-17-16----------14-16-14----5-4-5-7-------5------------|
G:---------------------------13-14-16----------14-----------------6~~~~~~~~~~|
D:---------------------------------------------------------------------------|
A:---------------------------------------------------------------------------|
E:---------------------------------------------------------------------------|




                          s                               p           p
e:---------------------------------------------------------------------------|
B:-------------7--------------------------------7-----------17-14----14-17-14|
G:~---5--8--9--8--8~~~~~~~~-8-/9~~~~~~-5--8--9--8--8~~~~~~~-------16---------|
D:----7--10-11----10~~~~~~~-10/11~~~~~-7--10-11----10~~~~~~------------------|
A:---------------------------------------------------------------------------|
E:---------------------------------------------------------------------------|




           p               p  h  p  h  p                 p  h  h
e:--------------------14-----------------------------------------------------|
B:-------17-14-----------17-14-17-14-15-14----14----14-------------14b(15)-b(|
G:-17b(19)-----16b(18)---------------------16----16----16-14-15-16-----------|
D:---------------------------------------------------------------------------|
A:---------------------------------------------------------------------------|
E:---------------------------------------------------------------------------|



       p        h        s     p        h        ah
e:------------------------------------------------------|
B:14)------14-------14-15\14-------14-------------------|
G:---16-15----15-16----------16-15----15-16-16---16~~~~~|
D:------------------------------------------------------|
A:------------------------------------------------------|
E:------------------------------------------------------|


                                          h
e:---------------------------------------------------------------------------|
B:----------7----------------------------------------------------------------|
G:-5--8--9--8--8~~~~~~~~-8--7-5-7--7--7-4-6~~~~~~~~~~~~~~~~~~-----18-17------|
D:-7--10-11----10~~~~~~~-10-9-7-9--7--7------------------------16------------|
A:--------------------------------------7-9~~~~~~~~~~~~~~~~~~----------------|
E:---------------------------------------------------------------------------|




    s                                          s                 s   *-1    -
e:---------------------------------------------------------------------------|
B:---------------------------------------------------------------------------|
G:--/18~~~~~~~~~~~~----18-17--------17-18------\----18-17--------\--14--0-14-|
D:------------------16---------------------------16--------------------------|
A:---------------------------------------------------------------------------|
E:---------------------------------------------------------------------------|




  1    -1    -1  -1 p                s  (w\feedback)               h  ah
e:---------------------------------------------------------------------------|
B:-------------------------------------19~~~~~~~~~~~~~~~~~~~~----------------|
G:-0-14--0-14--0--14-0-----18-17-----\------------------------4-4-4-6-5~~~~~~|
D:----------------------16---------------------------------------------------|
A:---------------------------------------------------------------------------|
E:---------------------------------------------------------------------------|




         s       s p           s                      h p                   s
e:--------------------5------------------------------------------------------|
B:-------------\8\7-4--------------------------------------------------------|
G:~~~~~-5/6--------------------/4-4-6--5~~~~~~~~\-/--------------------------|
D:---------------------------------------------------6-7-6-7-9-6-7---6-------|
A:-----------------------------------------------------------------9---7-9-9\|
E:---------------------------------------------------------------------------|




   h         s              h h       p       h
e:---------------------------------------------------------------19-21b(23)b(|
B:------------------------------------------------------------22-------------|
G:----------4/6-5--\-/9-------------------\-----4-6-5-----5-4----------------|
D:------2-4---------------------------------2-4------------------------------|
A:4-7-7----------------------------------------------------------------------|
E:---------------------------------------------------------------------------|



           p  h     h  p     p    h  h    s  s         h h    h  p
e:21)-17----------16-17-16---------------9/11\9----------------------------|
B:-------17-16-17----------19-17-9-10-12--------10-----------9-10-9--------|
G:-------------------------------------------------11-8-9-11--------9-8----|
D:----------------------------------------------------------------------11-|
A:-------------------------------------------------------------------------|
E:-------------------------------------------------------------------------|


             
             
     s       
e:----------|
B:----------|
G:-11\------|
D:-11\------|
A:-9-\------|
E:-2-\------|


Notation:
-------------------------
t - tapping
p - pull-off
h - hammer-on
// - tremelo picking
x - rake
x\ - pick slide
 - degree of whammy bar dive (- is push down,+ is pull up)
a.h. - artificial harmonic
p.m. - palm muting
s - slide (/ is up,\ is down)

Enjoy! Send any comments ir criticisms to:
joel@mail.dmv.com
and THANKS AGAIN!


Comments