Lykke Li - Im Good Im Gone Chords & Tabs

 

Im Good Im Gone Chords & Tabs

Lykke Li Chords & Tabs

Version: 1 Type: Tab 0 ratings
1 star 2 stars 3 stars 4 stars 5 stars
comments

Im Good Im Gone Tab

-------------------------|
-5-5--8--8--10-10--8--8--|
-6-6--9--9--11-11--10-10-|
-7-7--10-10-12-12--10-10-|
-7-7--10-10-12-12--8--8--|
-5-5--8--8--10-10--------|

[ Tab from: http://www.guitartabs.cc/tabs/l/lykke_li/im_good_im_gone_tab.html ]
          OR

-------------------------|
-------------------------|
-------------7-7--10-10--|
-7-7--10-10--7-7--10-10--|
-7-7--10-10--5-5--8--8---|
-5-5--8--8---------------|
Comments