Lycia - Pray Chords & Tabs

 

Pray Chords & Tabs

Lycia Chords & Tabs

Version: 1 Type: Tab 0 ratings
1 star 2 stars 3 stars 4 stars 5 stars
comments

Pray Tab

   
Artist: Lycia

Song: Pray

Album: The Burning Circle And Then Dust

Tunning: E

Chords: D-X57000
        E-X79000
        C-X35000
        B-X24000
        G-X1012000
        F#-X911000

Tab:
E-0-0-0-0-0-0-0-0-0-0-0-0-0-0-0-0-0-0-0-|
B-0-0-0-0-0-0-0-0-0-0-0-0-0-0-0-0-0-0-0-|
G-0-0-0-0-0-0-0-0-0-0-0-0-0-0-0-0-0-0-0-|
D-7-7-7-7-7-9-9-0-0-5-5-5-5-4-4-4-4-4-4-|
A-5-5-5-5-5-7-7-7-7-3-3-3-3-2-2-2-2-2-2-|
E---------------------------------------|
[ Tab from: http://www.guitartabs.cc/tabs/l/lycia/pray_tab.html ]
E-0--0--0--0--0-0-0-0-0--0--0--0--0-0-0-0-0-0-0-0-0-0-0-0-0-|
B-0--0--0--0--0-0-0-0-0--0--0--0--0-0-0-0-0-0-0-0-0-0-0-0-0-|
G-0--0--0--0--0-0-0-0-0--0--0--0--0-0-0-0-0-0-0-0-0-0-0-0-0-|
D-12-12-11-11-7-7-7-7-12-12-11-11-9-9-9-9-9-9-7-7-7-7-7-7-7-|
A-10-10-9--9--5-5-5-5-10-10-9--9--7-7-7-7-7-7-5-5-5-3-3-3-3-|
E-----------------------------------------------------------|


Inro:

D, E, C, B  *play twice*

G, F#, D, G, F#, E, D, C  *play 4 times*

D, E, C, B  *play twice*

Verse:

D   E     C           B
Eveyday I pray for you

D    E     C   B
Everyday I pray

D     E       C          B
Every night I think about

D    E     C   B        G F# D G F# E
Everyday I pray   I pray

    D                C
For better things to come
Comments