Lux Courageous - What A Place To Find Ones Divinity Chords & Tabs

 

What A Place To Find Ones Divinity Chords & Tabs

Lux Courageous Chords & Tabs

Version: 1 Type: Tab 0 ratings
1 star 2 stars 3 stars 4 stars 5 stars
comments

What A Place To Find Ones Divinity Tab

Band: Lux Courageous
Song: What A Place To Find One's Divinity
Alblum: Reasons That Keep The Ground Near
Tuning: Standard

Intro:
e|---------------------------------------|
B|---------------------------------------|
G|---2-2/4-2----2-------2-----2-----2----|
D|--0-0--------0-0-----0-0---0-0---0-0---|
A|-2----------4-----4/5------------------|
E|--------------------------2-----3------|

e|-----------------------------------------------|
B|-----------------------------------------------|
G|---2-2/4-2----2-------2-----2-----2--2-2---2---|
D|--0-0--------0-0-----0-0---0-0---0-0--0-0--0---|
A|-2----------4-----4/5----------------------0---|
E|--------------------------2-----3----------3---|

Verse: (Not Exact Chord Switch Times But Very Close)
e|------------------------------------------------|
B|-----------0---------0--------0-----------------|
G|---2---2---2-----2---2---2----2-----2---2---2---|
D|---0---0---0-----0---0---0----0-----0---0---0---|
A|---0---0---2-----0---2---0----2-----0---0---0---|
E|-3p2---0-------3p2-----3p2----------0---2---3---|
...coat     for tonight  funny girls beau-ti-ful

Prechorus:
e|-------------|
B|-2--2/4--4---|
G|-0--0-0--0---|
D|-2--2/4--4---|
A|-0--0-0--0---|
E|-------------|

Chorus:
e|-------------------------------------------------|
B|-------0-0---0---0---0---0---0---0-----------0---|
G|---2---4/2---2---2---4---2---2---2---2---2---2---|
D|---0---0-0---0---0---0---0---0---0---0---0---0---|
A|---0---4/2---4---2---4---2---4---2---0---0---2---|
E|-3p2---------------------------------3---2-------|

Verse 2:
e|---------------------------------------------|
B|-----------0---------0-------0---------------|
G|---2---2---2-----2---2---2---2---2---2---2---|
D|---0---0---0-----0---0---0---0---0---0---0---|
A|---0---0---2-----0---2---0---2---0---0---0---|
E|-3p2---0-------3p2-----3p2-------0---2---3---|
[ Tab from: http://www.guitartabs.cc/tabs/l/lux_courageous/what_a_place_to_find_ones_divinity_tab.html ]
e|---------------------------------------------|---------------------|
B|-----------0---------0-------0---------------|-0-----0-------------|
G|---2---2---2-----2---2---2---2---2---2---2---|-2-----2-----2---2---|
D|---0---0---0-----0---0---0---0---0---0---0---|-0-----0-----0---0---|
A|---0---0---2-----0---2---0---2---0---0---0---|-2-----4-----0---0---|
E|-3p2---0-------3p2-----3p2-------0---2---3---|-------------2---3---|
                                               know dreams real   

Chorus: (Guitar 1)
e|-------------------------------------------------|
B|-------0-0---0---0---0---0---0---0-----------0---|
G|---2---4/2---2---2---4---2---2---2---2---2---2---|
D|---0---0-0---0---0---0---0---0---0---0---0---0---|
A|---0---4/2---4---2---4---2---4---2---0---0---2---|
E|-3p2---------------------------------3---2-------|

Chorus Solo: (Guitar 2) 2X
e|-------------------------------------------------------------|
B|-------------------------------------------------------------|
G|-7-7-7-7-9-9-9-9--7-7-9-9-10-10-12--12-7-7-9-9-10-10-12-12---|
D|--7-7-7-7-7-7-7-7--------------------------------------------|
A|-------------------------------------------------------------|
E|-------------------------------------------------------------|

e|--------------------------------------------------------------|
B|--------------------------------------------------------------|
G|-7-7-7-7-9-9-9-9--7-7-9-9-10-10-12-12--14-14-12-12-10-12-10---|
D|--7-7-7-7-7-7-7-7---------------------------------------------|
A|--------------------------------------------------------------|
E|--------------------------------------------------------------|

Ending:
e|----------------------------------|
B|----------------------------------|
G|---2-2/4-2----2-------2----2------|
D|--0-0--------0-0-----0-0----0-----|
A|-2----------4-----4/5--------4----|
E|------------------------------0---|
Comments