Lux - Headmaster Chords & Tabs

 

Headmaster Chords & Tabs

Lux Chords & Tabs

Version: 1 Type: Chords 0 ratings
1 star 2 stars 3 stars 4 stars 5 stars
comments

Headmaster Chords

   
Another stunning inclusion in the Lux back catalogue as the Etonians 
manage to touch the hearts of, other Etonians everywhere with this tale of 
blackmailing their headmaster. Cheers ed

Vs1
E           G#            C#min     B 
Headmaster, don't beat me or punish or mistreat me
E           G#          C#min  B 
I know that your angry, i've behaved so badly
E              G#          C#min    B   
I know its the first time, it's his fault it's not mine
E           G#         C#min  B
The teacher was lying, i'll behave i'm trying

Chorus
E     G#            C#min        B
Woah, what's in you backroom, it must be found
E        G#     C#min   B
Laughing in the chapel, is so profound
E       G#     C#min     B              F#  
Smoking in the bathroom, please understand
A
It's not you fault you know

Vs2

Why don't we make a deal
You'll agree, i feel
You know that i've trapped you
You don't want them to sack you

Your wife and the matron
You naked in that apron
I know now i've trapped 
I think i'll be school captain

Chorus
[ Tab from: http://www.guitartabs.cc/tabs/l/lux/headmaster_crd.html ]
Solo


E--------------------------------------------------------------------
B--------------------------------------------------------------------
G----------9---11(12)--11(12)--9---------9------9--11(12)--9-----9---
D-----11--------------------------9--11-----11----------------11-----
A--------------------------------------------------------------------
E--------------------------------------------------------------------

E--------------------------------------------------12----------------
B-----------------------------9------9--9--12--14-----12--14--12--9--
G-------9------9-----9-----------11----------------------------------
D--11-----11-----11-----11-------------------------------------------
A--------------------------------------------------------------------
E--------------------------------------------------------------------

E--------------------------------------------------------------------
B--9-----------------------------------------------------------------
G-----11--9--11--9-------------9--9----------------------------------
D-------------------11--9--11----------------------------------------
A--------------------------------------------------------------------
E--------------------------------------------------------------------

CHORUS
Comments