Lustra - Scotty Doesn't Know Chords & Tabs

 

Scotty Doesn't Know Chords & Tabs

Lustra Chords & Tabs

Version: 1 Type: Bass Tab 0 ratings
1 star 2 stars 3 stars 4 stars 5 stars
comments

Scotty Doesn't Know Bass Tab

Lustra
Scotty Doesn't Know Bass Tab
Eurotrip (great movie!)

Guitar does the intro 2x then bass comes in with this:

G|------------------------|
D|---------------3333-----|
A|-----00---33-------3333-|
E|33----------------------|

Chorus: x1
G|------------------------------------------------------------------------|
D|33333333---------------------------33333333-----------------------------|
A|---------00000000-3333333333333333----------00000000-33333333-0000-3333-|
E|------------------------------------------------------------------------|

Verse: x2
G|-------------------------------------|
D|---------------------------3333------|
A|---------00000000-33333333------3333-|
E|33333333-----------------------------|

Chorus: x1

Verse: x4

Chorus: x2
[ Tab from: http://www.guitartabs.cc/tabs/l/lustra/scotty_doesnt_know_btab.html ]
Interlude: x1
G|--------------------------------------------------------------------|
D|3-------------------------------------------------------------------|
A|-----------000--33-33-3-3-3-3---------0-0-0-0-3333333333333333-3----|
E|------333---------------------3-3-3-3-------------------------------|

Rest for guitar

Chorus: x2 (on 2nd time do 3rd fret on A string 16x instead of 8 then the
            4 0s and 3s)

2nd prt of end chorus: x1
G|-------------------------------------------------------------------------|
D|33333333-55555555-7777777777777777-33333333-55555555-77777777-5555-7777--|
A|------------------------------------------------------------------------3|
E|-------------------------------------------------------------------------|

Thats it. ENJOY!
Comments