Lustig Peter - L Wenzahn Theme Tab Chords & Tabs

 

L Wenzahn Theme Tab Chords & Tabs

Lustig Peter Chords & Tabs

Version: 1 Type: Tab 0 ratings
1 star 2 stars 3 stars 4 stars 5 stars
comments

L Wenzahn Theme Tab Tab

LĂ–WENZAHN - THEME TAB



	E|----------------------|----------------------|
	H|----------------------|----------------------|
	G|-----0----------------|-------0--------------|
	D|--------3-2-0------0--|----------3-2-0-------|
	A|---------------2-3----|----------------------|
	E|--3-------------------|----3-----------------|
[ Tab from: http://www.guitartabs.cc/tabs/l/lustig_peter/l_wenzahn_theme_tab_tab.html ]
	E|----------------------|----------------------|
	H|-----1----------------|-------1--------------|
	G|--------3-2-0------0--|----------3-2-0-------|
	D|---------------2-3----|----------------------|
	A|--3-------------------|----3-----------------|
	E|----------------------|----------------------|

	E|----------------------|----------------------|
	H|----------------------|----------------------|
	G|----------------------|----------------0-----|
	D|----0-2-2-2-0---------|----0-2-2-2-0---------|
	A|--3-----------3-------|--3-----------3-------|
	E|----------------3-----|----------------3-----|

	E|----------------------|----------------------|
	H|----------------------|-------------3--------|
	G|--0-2-3-3-3-2-0-------|----------------------|
	D|----------------------|--3-3----0-1-0--------|
	A|------1---------------|-------3--------------|
	E|----------------------|--1-------------------|
Comments