Luscious Jackson - Ladyfingers Chords & Tabs

 

Ladyfingers Chords & Tabs

Luscious Jackson Chords & Tabs

Version: 1 Type: Tab 0 ratings
1 star 2 stars 3 stars 4 stars 5 stars
comments

Ladyfingers Tab

   
T1: Ryan, liddellr@hotmail.com, Luscious Jackson, Ladyfingers, 29/6/99

S1: Thanks...., Song: Ladyfingers
Artist: Luscious Jackson
Album: Electric Honey

This one riff is played throughout the entire song at different times

    D#5         C5              D#5         F5     
E|---------------------------------------------------------------
B|---------------------------------------------------------------
G|--8--8--8--8--5---5--5--5--5--8--8--8--8--10---10--10--10--10--
D|--8--8--8--8--5---5--5--5--5--8--8--8--8--10---10--10--10--10--
A|--6--6--6--6--3---3--3--3--3--6--6--6--6--8----8---8---8---8--
E|---------------------------------------------------------------
[ Tab from: http://www.guitartabs.cc/tabs/l/luscious_jackson/ladyfingers_tab.html ]
   D#5         C5              D#5         C5
E|-------------------------------------------------------------------|
B|-------------------------------------------------------------------|
G|-8--8--8--8--5---5--5--5--5--8--8--8--8--5---5--5--5--5------------|
D|-8--8--8--8--5---5--5--5--5--8--8--8--8--5---5--5--5--5------------|
A|-6--6--6--6--3---3--3--3--3--6--6--6--6--3---3--3--3--3------------|
E|-------------------------------------------------------------------|

I got ladyfingers baby
I got kidgloves
Baby I got heart

If you need me to be sweet
then I can give you what you need
'cause I know you never came first baby
I'm so tired of my guns and my vanity
I'd like to trade them in for some sanity
and I know it didn't come too easy
It didn't come easy to me either
from the freezer to believer in love.

Well I got ladyfingers baby
I got kidgloves
baby I got heart

I bet you didn't know that I could treat you right
that underneath the armor
there's another girl
she's standing with a suitcase
ready to run
in case you're wondering
why she's so quick to come and go
why she's so quick to come and go
she might be new she might be old
she might be scared as hell
she might not be so bold
she might not be so bold.


Comments