Ludwig Van Beethoven - Sonata For Violin And Piano Chords & Tabs

 

Sonata For Violin And Piano Chords & Tabs

Ludwig Van Beethoven Chords & Tabs

Version: 1 Type: Tab 0 ratings
1 star 2 stars 3 stars 4 stars 5 stars
comments

Sonata For Violin And Piano Tab

   
Title: Sonata for Violin and Piano Arranged for 2 Guitars
Alex Mondragon




                  4/4
                   H       S  S S S S  S S S  H       S S S S S S S S
                E|-12------10-8-7-8-10-8-7-5|-3-------5-3-2-3-5-3-1-0|
                B|--------------------------|------------------------|
                G|--------------------------|------------------------|
 Guitar         D|--------------------------|------------------------|
                A|--------------------------|------------------------|
                E|--------------------------|------------------------|
                 |
                 |
                 |
                 |
                 |
                 | E E E E E    E   E    E    E E E E E   E   E   E
                E|--------------------------|------------------------|
                B|-----1------------1-------|-----1-----------1------|
                G|---0---0------0--------0--|---0---0-----0-------0--|
Guitar          D|-2-------2----------------|-2-------2--------------|
                A|--------------------------|-3----------------------|
                E|--------------------------|------------------------|






   Q.    E E E E E   H       E E Q     Q.    S S E E E  E   H       E E Q
E|-------------8-5-|-3-------1-------|-1-----3-1-0-1-13-10|-8-------7-------|
B|-3-----1-0-1-----|-----------------|--------------------|-----------------|
G|-----------------|-----------------|--------------------|-----------------|
D|-----------------|-----------------|--------------------|-----------------|
A|-----------------|-----------------|--------------------|-----------------|
E|-----------------|-----------------|--------------------|-----------------|
 |
 |
 |
 |
 |
 | E E E E E E E E   E E E E E E E E   E E E E   E E E  E   E E E E E E E E
E|-----------------|-----------------|--------------------|-----------------|
B|-----1-------1---|-----3-------3---|-----3---------3----|---0-3-0---3-0---|
G|---2---2---2---2-|---2---2---2---2-|---2---2-----2----2-|-----------------|
D|-2-------2-------|-3-------3-------|-0---------3--------|-3-------3-----3-|
A|-0---------------|-----------------|-8------------------|-----------------|
E|-----------------|-----------------|--------------------|-3---------------|






   Q.     S S E E E  E   H       E  E  E  E   E E  S SS SE E SSSS
E|-7------8-7-6-7-17-15|-15------13-12-10-8-|-9-10-12-13-2-3-5-7-|
B|---------------------|--------------------|--------------------|
G|---------------------|--------------------|--------------------|
D|---------------------|--------------------|--------------------|
A|---------------------|--------------------|--------------------|
E|---------------------|--------------------|--------------------|
 |
 |
 |
 |
 |
 | E  E E E   E E E  E   E E E E E  E  E  E   E E  E  E  E E E E
E|---------------------|--------------------|--------------------|
B|------0---------0----|-----1--------------|----------------0---|
G|--------------0----0-|---0---0----0-----2-|---2-----2----------|
D|-0--3---3---0--------|-2-------2-----2----|-3----3-----0-3---3-|
A|---------------------|---------------0----|--------------------|
E|-3----------1--------|-0------------------|-1----------3-------|






   Q     Q     H                E E E E E    E   E    E
E|-8--------------------------|--------------------------|
B|----------------------------|-----1------------1-------|
G|----------------------------|---0---0------0--------0--|
D|----------------------------|-2-------2----------------|
A|----------------------------|--------------------------|
E|----------------------------|--------------------------|
 |
 |
 |
 |
 |
 | SSS S SS SS S SS S S S S S   H       S  S S S S  S S S
E|----------------0-1-3-5-8-10|---------10-8-7-8-10-8-7-5|
B|-----------0-1-3--------12--|--------------------------|
G|--0-----0-2-----------------|--------------------------|
D|-2-3-2-3--------------------|--------------------------|
A|----------------------------|--------------------------|
E|----------------------------|--------------------------|






   E E E E E   E   E   E    E E E E E E E E   E E E E E E E E
E|------------------------|-----------------|-----------------|
B|-----1-----------1------|-----1-------1---|-----3-------3---|
G|---0---0-----0-------0--|---2---2---2---2-|---2---2---2---2-|
D|-2-------2--------------|-2-------2-------|-3-------3-------|
A|------------------------|-----------------|-----------------|
E|------------------------|-----------------|-----------------|
 |
 |
 |
 |
 |
 | H       S S S S S S S S  Q.    E E E E E   H       E E Q
E|---------5-3-2-3-5-3-1-0|-------------8-5-|---------1-------|
B|------------------------|-------1-0-1-----|-----------------|
G|------------------------|-----------------|-----------------|
D|------------------------|-----------------|-----------------|
A|-3----------------------|-0---------------|-----------------|
E|------------------------|-----------------|-----------------|






   E  E  E   E   E    E     E     E      E E E E E E E E
E|-------------------------------------|-----------------|
B|-------3------------------3----------|---0-3-0---3-0---|
G|----2------2--------2-----------2----|-----------------|
D|-3-------------3---------------------|-3-------3-----3-|
A|-------------------------------------|-----------------|
E|-------------------------------------|-----------------|
 |
 |
 |
 |
 |
 | S SES Q S S S H S  S  S  S  S  S  S   H       E E Q
E|-1-3-1-0-1-3-5-7-10-12-13-13-13-12-10|---------7-------|
B|-------------------------------------|-----------------|
G|-------------------------------------|-----------------|
D|-0-----------------------------------|-----------------|
A|-------------------------------------|-----------------|
E|-------------------------------------|-3---------------|






   E   E   E   E   E   E     E  E   E E E E E  E  E  E   E E E E E   E E  E
E|--------------------------------|--------------------|--------------------|
B|---------0-----------------0----|-----1---------1----|-----1---1--------1-|
G|---------------------0--------0-|---0---0----2-----2-|---2---2-------2----|
D|-0---3-------3---0--------------|-2-------2----------|-2-----------4------|
A|--------------------------------|--------------------|--------------------|
E|--------------------------------|--------------------|--------------------|
 |
 |
 |
 |
 |
 | S S E S Q S S S SS  E  S  Q  E   H       H  E  E  E   H       S S ESQS SS
E|-7-8-7-6-7-8-9-10-13-14-16-17-15|-15------13-12-10-8-|-8-------8-8-7--5-3-|
B|--------------------------------|--------------------|--------------------|
G|-0------------------------------|--------------------|--------------------|
D|-----------------3--------------|--------------------|---------0----------|
A|--------------------------------|--------------------|--------------------|
E|-----------------1--------------|-0------------------|--------------------|






   E E E E E E   E   E    E E E E E E    E   E    E E E E E  E   E   E
E|----------------------|-----------------------|-----------------------|
B|-0-3-0-----3---0------|---1---1------------1--|-0-3-0------3---0------|
G|-------0--------------|----------------2------|-------0---------------|
D|---------3---------3--|-2---1---0-4-----------|---------3----------3--|
A|----------------------|-----------------------|-----------------------|
E|----------------------|-----------------------|-----------------------|
 |
 |
 |
 |
 |
 | Q   Q   Q S S S S E S  H   Q   Q S  S S S E S  Q   Q   QS S S S S E S
E|-5---3-----5-3-2-3-5-7|-----8-----10-8-7-5-3-2|-----3----3-5-3-2-3-5-7|
B|---------0------------|-0-------0-------------|-0-------0-------------|
G|----------------------|-----------------------|-----------------------|
D|----------------------|-----------------------|-----------------------|
A|----------------------|-----------------------|-----------------------|
E|-3---3---------3------|----------------3------|-----3----------3------|






   E E E E E  E    E   E    E  E    E   S SE  E    E   S S  E E S SE H
E|------------------------|-------------------------------|-----3------------|
B|---1---1-------------1--|-0-----------1--0-----------1--|-0---0------------|
G|-----------------2------|-------------------------------|------------------|
D|-2---1---0--4-----------|-0-----------1--0-----------1--|-0---0------------|
A|------------------------|-------------------------------|------------------|
E|------------------------|-------------------------------|------------------|
 |
 |
 |
 |
 |
 | H   Q   QS S  S S S E S  QS S  S E S S SQS S  S E S S S  E E E  E H
E|-----8----8-10-8-7-5-3-2|--3-10-8-7-5-3-2-3-10-8-7-5-3-2|-----15-----------|
B|-0-------0--------------|-0--------------0--------------|-0---15-----------|
G|------------------------|-------------------------------|------------------|
D|------------------------|-------------------------------|------------------|
A|------------------------|-------------------------------|------------------|
E|-----------------3------|-------------3--------------3--|------------------|







E|-------------------------|--------------------------|-----------------|
B|-------------------------|--------------------------|-----------------|
G|-------------------------|--------------------------|-----------------|
D|-------------------------|--------------------------|-----------------|
A|-------------------------|--------------------------|-----------------|
E|-------------------------|--------------------------|-----------------|
 |
 |
 |
 |
 |
 | H       S S S  S S S S S  S S SS S SSS S S SS S SSS  E E E E E E E E
E|-6-------4-6-8--6-4-3-1-3|-4-3-1-----1--------------|-----------------|
B|-------------------------|------4-3-4-4-3-1---------|-----------------|
G|--------------------0---0|---0--------------3--0--3-|-0---------------|
D|-8-------6-8-10-8-6---3--|-6---3--0--3--0----6---6-6|-----3---1---0---|
A|-------------------------|------6---6-6---3-1-----1-|-----------------|
E|-------------------------|-------------------4-3-4-4|-3---1-----------|






   H       E E E E   E E Q   H         H        E  E E  E   E E Q   H
E|-5+------5-4-5-0-|-2---------------|-10+------10-9-10-5-|-6----------------|
B|-----------------|-----------------|--------------------|------------------|
G|-----------------|-----------------|--------------------|------------------|
D|-----------------|-----------------|--------------------|------------------|
A|-----------------|-----------------|--------------------|------------------|
E|-----------------|-----------------|--------------------|------------------|
 |
 |
 |
 |
 |
 | E E Q   E E Q     E E E E E E E E   E  E Q   E  E Q      E E E E E E E  E
E|-----------------|-----------2-5-9-|-10-----------------|-------2-3-6-10-14|
B|-----------------|-------2-3-------|----------3---------|-3---3------------|
G|---------2-------|-2---2-----------|----------2---------|-3-3--------------|
D|---------2-------|-4-4-------------|-0--------4---------|-5----------------|
A|-4-------4-------|-5---------------|-0------------------|------------------|
E|-----------------|-----------------|--------------------|------------------|






   E E E E E E  E  E   Q   Q        H               W
E|---------3-5--6--3-|-2--------------------------|-10------------------------|
B|-------2-----------|----------------------------|---------------------------|
G|---0-3-------------|----------------------------|---------------------------|
D|-------------------|----------------------------|---------------------------|
A|-------------------|----------------------------|---------------------------|
E|-------------------|----------------------------|---------------------------|
 |
 |
 |
 |
 |
 | H       E E  E  E   Q   Q  S S S H S S S S S SS  Q   S S S S S SS S S S S S
E|-15--------14-15-9-|-10+-10-9-8-7-6-5-4-3-2-1-0-|---------------------------|
B|-------------------|---------------------------4|-3+--3-2-1-0---------------|
G|-------------------|----------------------------|-------------3-2--0--------|
D|---------1---------|-0--------------------------|-0+--0----------6---4-3-2-1|
A|-------------------|----------------------------|-------4-3-2-1-0-----------|
E|-------------------|----------------------------|----------------4-3-2-1-0--|






   Q.    E Q.    E   E E E E E E E E   E E Q   H          H         Q     Q
E|-----------------|-----------------|---------10-------|-----------10---------|
B|-3-----2-3-----2-|-3-2-3-2-1-0-----|---------13-------|-----------13---------|
G|-----------------|-------------3-2-|-0----------------|----------------------|
D|-----------------|-----------------|------------------|----------------------|
A|-----------------|-----------------|------------------|----------------------|
E|-----------------|-----------------|------------------|----------------------|
 |
 |
 |
 |
 |
 | Q.    E Q.    E   E E E E E E E E   ESE E E E  E E E   E E E  E  E  E  E  E
E|-----------------|-----------------|--------------3-3-|-7-7-10-10-15-15-19-19|
B|-----------------|-------------0-0-|-0-0-0-0-0--0-3-3-|-8-8-12-12-15-15------|
G|-----------------|-----------------|---0-0-0-7--7-0-0-|-7-7------------------|
D|-0-------0-------|-0---0-----------|---0-0-0-0--0-0-0-|-9-9------------------|
A|-------4-------4-|---4---4-3-2-----|---2-2-2-2--2-2-2-|----------------------|
E|-----------------|-----------------|---3-3-3-3--3-----|----------------------|






   Q     H           E  E   E  E  E  E  E  E  E  E   E E Q   H
E|-------10----------8----|-5-----2----------------|---------10-------|
B|------------------------|-------------3-----1----|-0-------13-------|
G|------------------------|------------------------|------------------|
D|------------------------|------------------------|------------------|
A|------------------------|------------------------|------------------|
E|------------------------|------------------------|------------------|
 |
 |
 |
 |
 |
 | E SE  E  E  E  E  E  E   E  E  E  E  E  E  E  E   SSE E E E  E E E
E|-8--10-10-10-10-10-10-10|-10-10-10-10-10-10-10-10|--------------3-3-|
B|-10-3--3--3--3--3--3--3-|------------------------|---0-0-0-0--0-3-3-|
G|-11-5--5--5--5--5--5--5-|-7--7--7--7--7--7--7--7-|---0-0-0-7--7-0-0-|
D|----7--7--7--7--7--7--7-|-10-10-10-10-10-10-10-10|---0-0-0-0--0-0-0-|
A|------------------------|------------------------|---2-2-2-2--2-2-2-|
E|------------------------|------------------------|-3-3-3-3-3--3-----|






   H         Q     Q      Q     H           E  E   E  E  E  E  E  E  E  E
E|-----------10---------|-------10----------8----|-5-----2----------------|
B|-----------13---------|------------------------|-------------3-----1----|
G|----------------------|------------------------|------------------------|
D|----------------------|------------------------|------------------------|
A|----------------------|------------------------|------------------------|
E|----------------------|------------------------|------------------------|
 |
 |
 |
 |
 |
 | E E E  E  E  E  E  E   E SE  E  E  E  E  E  E   E  E  E  E  E  E  E  E
E|-7-7-10-10-15-15-19-19|-8--10-10-10-10-10-10-10|-10-10-10-10-10-10-10-10|
B|-8-8-12-12-15-15------|-10----3--3--3--3--3--3-|-3--3--3--3--3--3--3--3-|
G|-7-7------------------|-11-7--5--5--5--5--5--5-|-5--5--5--5--5--5--5--5-|
D|-9-9------------------|----10-7--7--7--7--7--7-|-7--7--7--7--7--7--7--7-|
A|----------------------|------------------------|------------------------|
E|----------------------|------------------------|------------------------|






   SSS S S SS SS SS SS SS S  H         E E Q     E S S SSSSSSSSSSSS
E|---6-8-10-10-10-10-10-10-|-10--------9-------|---5-6-8-8-8-8-8-8-|
B|-------------------------|-------------------|-------------------|
G|-3-----------------------|-------------------|-------------------|
D|-------------------------|-------------------|-------------------|
A|-------------------------|-------------------|-------------------|
E|-------------------------|-------------------|-------------------|
 |
 |
 |
 |
 |
 | Q     Q     H             E S S SSSSSSSSSSSS  Q     Q   H
E|-------------------------|---3-5-6-6-6-6-6-6-|-------5-----------|
B|-------------------------|-------------------|-------------------|
G|-------------------------|-------------------|-------------------|
D|-------------------------|-------------------|-------------------|
A|-------------1-----------|-------------------|-----------0-------|
E|-3-----------------------|-0-----------------|-2-----------------|






   H         E E Q     E S S SSSSSSSSSSSS  Q     H       Q
E|-8---------7-------|---3-5-6-6-6-6-6-6-|-6-----5-------6---|
B|-------------------|-------------------|-------------------|
G|-------------------|-------------------|-------------------|
D|-------------------|-------------------|-------------------|
A|-------------------|-------------------|-------------------|
E|-------------------|-------------------|-------------------|
 |
 |
 |
 |
 |
 | E S S SSSSSSSSSSSS  Q     Q   H         E S S SSSSSSSSSSSS
E|---2-3-5-5-5-5-5-5-|-------3-----------|---0-2-3-3-3-3-3-3-|
B|-------------------|-------------------|-------------------|
G|-------------------|-------------------|-------0-0-0-0-0-0-|
D|-------------------|-------------------|-------------------|
A|-------------------|-------------------|-------------------|
E|-------------------|-0---------3-------|-------------------|






   Q.    S S H             Q.    S S Q.    S S  SSE SSE S SE SSE
E|-7+----7-5-3+----------|-3-----5-3-5+----5-2|-3------------3---|
B|-----------------------|---------7-8+----8--|-----0---3--------|
G|-----------------------|--------------------|------------------|
D|-----------------------|--------------------|------------------|
A|-----------------------|--------------------|------------------|
E|-----------------------|--------------------|------------------|
 |
 |
 |
 |
 |
 | E SSSSS S E  S SS SS S  E SSSSS S E SSSSS S  SSSSSSSSE  SSSSSS
E|---3-3-3---------------|--------------------|---------10-------|
B|--------------0--0--0--|---0-0-0------------|---------13-------|
G|---0-0-0------0--0--0--|---0-0-0-----2-2-2--|------------------|
D|-----------0--12-12-12-|---0-0-0-----0-0-0--|---0-0-0-02-0-0-0-|
A|-----------------------|-------------3-3-3--|---2-2-2----2-2-2-|
E|-----------------------|--------------------|-3----------------|






   SSE S SE S SE S SE   E E Q   H
E|-7---10---15---19---|-----------------|---------------------|
B|--------------------|-0---------------|---------------------|
G|--------------------|-----------------|---------------------|
D|--------------------|-----------------|---------------------|
A|--------------------|-----------------|---------------------|
E|--------------------|-----------------|---------------------|
 |
 |
 |
 |
 |
 | SSSSS SSSE  SSS SSS  SSSSE SSSSSSSSSS  E  SSS SSSS SSSS SSS
E|----------10--------|-----------------|-17---14---10---8----|
B|----------13--------|-----0-------0---|---------------------|
G|--------------------|-----------------|---------------------|
D|---0-0--0-02-0-0--0-|---0---0-0-0---0-|-19-0-06-0-02-0-00-0-|
A|---2-2--2-2--2-2--2-|---3---3-3-3---3-|----3-0--3-0--3-0--3-|
E|-3------------------|-2---------------|---------------------|






   Q   SSE S SE SSE   SSE S SE S SE S SE   E E Q   H
E|--------------3---|-6---10---15---18---|-----------------|
B|---------3--------|--------------------|-0---------------|
G|-----3------------|--------------------|-----------------|
D|------------------|--------------------|-----------------|
A|------------------|--------------------|-----------------|
E|------------------|--------------------|-----------------|
 |
 |
 |
 |
 |
 | SSSSSSSSE  SSSSSS  SSSSS SSSE  SSS SSS  SSSSE SSSSSSSSSS
E|-6-------10-------|----------10--------|-----------------|
B|---------13-------|----------13--------|-----0-------0---|
G|------------------|--------------------|-----------------|
D|-8-0-0-0-02-0-0-0-|---0-0--0-02-0-0--0-|---0---0-0-0---0-|
A|---1-1-1----1-1-1-|---1-1--1----1-1--1-|---3---3-3-3---3-|
E|-3----------------|-3------------------|-2---------------|






                                                  E S  S  S SS SS SS SS SS S
E|---------------------|------------------------|---15-17-18-18-18-18-18-18-|
B|---------------------|------------------------|---------------------------|
G|---------------------|------------------------|---------------------------|
D|---------------------|------------------------|---------------------------|
A|---------------------|------------------------|---------------------------|
E|---------------------|------------------------|---------------------------|
 |
 |
 |
 |
 |
 | E  SSS SSSS SSSS SSS  E S S S SS SE S SS SS S  H             E  E  Q
E|-17---14---10---8----|---6-8-10-10---10-10-10-|---------------9-----------|
B|---------------------|------------------------|---------------------------|
G|---------------------|------------------------|---------------------------|
D|-19-0-06-0-02-0-00-0-|-------12-12---12-12-12-|---------------11----------|
A|----3-0--3-0--3-0--3-|-------------1----------|---------------------------|
E|------8----8----8----|-3----------------------|-0-------------------------|






   Q     Q     H            E S  S  S SS SS SS SS SS S  Q     Q    H
E|-18----17---------------|---14-15-17-17-17-17-17-17-|-17----15-----------|
B|------------------------|---------------------------|--------------------|
G|------------------------|---------------------------|--------------------|
D|------------------------|---------------------------|--------------------|
A|------------------------|---------------------------|--------------------|
E|------------------------|---------------------------|--------------------|
 |
 |
 |
 |
 |
 | E S S S SS SE S SS SS S  H             E  E  Q       E S S S SSSE SSSSSS
E|---5-6-8--8----8--8--8--|---------------7-----------|---3-5-6--6---6-6-6-|
B|------------------------|---------------0-----------|--------------------|
G|------------------------|---------------------------|--------------------|
D|-------10-10---10-10-10-|---------------------------|-------8--8---8-8-8-|
A|-------------0----------|---------------------------|--------------------|
E|-2----------------------|---------------------------|-0----------3-------|






   E S  S  S SS SS SS SS SS S  Q   H         Q     E E E E   E E E  E
E|---12-14-15-15-15-15-15-15-|-15--10--------7+--|-7-3----------------|
B|---------------------------|-------------------|-----3-0---1-3-1--3-|
G|---------------------------|-------------------|--------------------|
D|---------------------------|-------------------|--------------------|
A|---------------------------|-------------------|--------------------|
E|---------------------------|-------------------|--------------------|
 |
 |
 |
 |
 |
 | Q       H           Q       Q.  E.S S Q   Q     Q   E S S Q   E.  S
E|---------5-----------6-----|-7+----7-5-3-------|-------5-3-5-------2|
B|---------------------------|-0+----0-----------|---------7----------|
G|---------------------------|---------2-0-------|--------------------|
D|---------7-----------8-----|-----0-------------|-----0-----7---0---4|
A|---------------------------|-----------2-------|--------------------|
E|---------------------------|---------------3---|--------------------|






   SSS SS S SS S  S S SS S SS  SSS SS S SS S  SS S SS SS
E|-----------0-2--3-2-0------|-----------0-1--0---------|
B|-0----0-1-3----------3-1-0-|------0-1-3------3-1-0----|
G|---0-2--------------------2|-0-0-2----------------2-0-|
D|---------------------------|--4----------------------3|
A|---------------------------|--------------------------|
E|---------------------------|--------------------------|
 |
 |
 |
 |
 |
 | Q    Q      Q       Q       Q    Q      Q       Q
E|-------------15------------|-------------19-----------|
B|-------------15------------|--------------------------|
G|------0------16------0-----|------0------19------0----|
D|-------------17------------|--------------------------|
A|---------------------------|--------------------------|
E|-3----3--------------3-----|-3----3--------------3----|






   SSSS SS S SS S SS S SS S  SSS SS  S SS S S S S S S  S  S
E|------------0-1-0--------|------------0-2-3-5-7-8-10-12-14|
B|-------0-1-3-----3-1-0---|------0--1-3--------------------|
G|----0-2---------------2-0|---0-2--------------------------|
D|-2-3---------------------|-4------------------------------|
A|-------------------------|--------------------------------|
E|-------------------------|--------------------------------|
 |
 |
 |
 |
 |
 | Q    Q     Q      Q       Q    Q       Q       Q
E|-------------------------|------17------------------------|
B|------------0------------|------16------------------------|
G|------0------------0-----|------07--------------0---------|
D|-------------------------|--------------------------------|
A|-------------------------|--------------------------------|
E|-3----3------------3-----|-3------------3-------3---------|






   E E   E   E     H                     Q      E   E     H
E|-15--------------3-------------------|------------------7-----------------|
B|-------------------------------------|--------0---------------------------|
G|-------0-----------------------------|------------------------------------|
D|-------------------------------------|------------------------------------|
A|-------------------------------------|------------------------------------|
E|-------------------------------------|------------------------------------|
 |
 |
 |
 |
 |
 | E E S S S E  S  Q  S  S  S  S  S E S  SS E S S S E  S  Q  S  S  S S S E S
E|---3-5-7-8-10-12-14-15-14-12-10-8-7-5|--2-3-5-7-8-10-12-13-12-10-8-7-5-3-1|
B|-------------------------------------|------------------------------------|
G|-------0---------------------0-------|------------------------------------|
D|-------0---------------------0-------|--------0--------------------0------|
A|-------------------------------------|------------------------------------|
E|-3-----------------------------------|-3----------------------------------|






   Q     E   E    H                  Q     E  E  Q      S  S SS
E|----------------8+---------------|-8-----------11-----10---8-|
B|-------1-------------------------|-------4-------------------|
G|---------------------------------|---------------------------|
D|---------------------------------|---------------------------|
A|---------------------------------|---------------------------|
E|---------------------------------|---------------------------|
 |
 |
 |
 |
 |
 | E E S S S E S  Q  S  S  S SS E S  SS E SSS E SS S E SS  S ES
E|---1-3-5-7-8-10-12-13-12-10-7-5-3|--3-5-6-6-5-3--------------|
B|---------------------------------|---------------4-3-1-------|
G|---------------------------------|--------------------3--2-0-|
D|-------2-------------------2-----|-------1------------0-----4|
A|---------------------------3-----|-------3------------3------|
E|-3-------------------------3-----|-3-----3-----3------3------|






   Q       Q       H                H.      E SS S  S S S
E|-7------------------------------|-3+---------3-3+-5-3-2|
B|--------------------------------|-----------------8----|
G|--------------------------------|----------------------|
D|--------------------------------|----------------------|
A|--------------------------------|----------------------|
E|--------------------------------|----------------------|
 |
 |
 |
 |
 |
 | S S S S S S S S S S S S S S S S  Q   Q   Q    Q
E|---------------0-2-3-2-0--------|----------------------|
B|---------0-1-3-----------3-1-0--|----------------------|
G|-0---0-2-----------0-----------2|-0--------------------|
D|---4---------0-2-4---4-2-0------|----------------------|
A|-------0-2-3---------------3-2-0|----------------------|
E|-3-2-3--------------------------|-3---2---1----0-------|






   Q    H.                     H.      E SS S  S S S
E|-8----7--------------------|-3+---------3-3+-5-3-2|
B|---------------------------|-----------------8----|
G|---------------------------|----------------------|
D|---------------------------|----------------------|
A|---------------------------|----------------------|
E|---------------------------|----------------------|
 |
 |
 |
 |
 |
 | QSS SS  S ES H S S SS S SS  Q   Q   H
E|------------0-2-3-2-0------|----------------------|
B|------0--1-3---------3-1-0-|----------------------|
G|---0-2--------------------2|-0--------------------|
D|--4------------------------|----------------------|
A|---------------------------|----------------------|
E|------3--------------------|----------------------|






   Q     H.                     H.      E SS S  S S S  H          H
E|-12----10-------------------|-3+---------3-3+-5-3-2|-10---------12----------|
B|----------------------------|-----------------8----|------------------------|
G|----------------------------|----------------------|------------------------|
D|----------------------------|----------------------|------------------------|
A|----------------------------|----------------------|------------------------|
E|----------------------------|----------------------|------------------------|
 |
 |
 |
 |
 |
 | Q SS SS  S ES H S S SS S SS  Q   Q   Q    Q         S SS SSS SSS SS SSS S S
E|-------------0-2-3-2-0------|----------------------|---------------0-1-5-7-8|
B|-------0--1-3---------3-1-0-|-----0---0----0-------|-0---------0--3---------|
G|----0-2--------------------2|-0--------------------|----0-2-0-2-------------|
D|---4------------------------|----------------------|---4--------------------|
A|----------------------------|----------------------|------------------------|
E|-------3--------------------|----------------------|-------2----1-----0-----|






   H                 H            H       S  S S S S  S S S
E|-13----------------7----------|-12------10-8-7-8-10-8-7-5|
B|------------------------------|--------------------------|
G|------------------------------|--------------------------|
D|------------------------------|--------------------------|
A|------------------------------|--------------------------|
E|------------------------------|--------------------------|
 |
 |
 |
 |
 |
 | S S  S  S  S S S SSSS S SS SS  E E E E E    E   E    E
E|---13-12-10-8-7-5-3-0---------|--------------------------|
B|---------------------3-1-0----|-----1------------1-------|
G|--------------------------2-0-|---0---0------0--------0--|
D|-----------------------------3|---------2----------------|
A|------------------------------|--------------------------|
E|-------------------3----------|--------------------------|






   H       S S S S S S S S  Q.    E E E E E   H       E E Q
E|-3-------5-3-2-3-5-3-1-0|-------------8-5-|-3-------1-------|
B|------------------------|-3-----1-0-1-----|-----------------|
G|------------------------|-----------------|-----------------|
D|------------------------|-----------------|-----------------|
A|------------------------|-----------------|-----------------|
E|------------------------|-----------------|-----------------|
 |
 |
 |
 |
 |
 | E E E E E   E   E   E    E E E E E E E E   E E E E E E E E
E|------------------------|-----------------|-----------------|
B|-----1-----------1------|-----1-------1---|-----3-------3---|
G|---0---0-----0-------0--|---2---2---2---2-|---2---2---2---2-|
D|-2-------2--------------|-2-------2-------|-3-------3-------|
A|-3----------------------|-0---------------|-----------------|
E|------------------------|-----------------|-----------------|






   Q.    S S E E E  E   H       E E Q     Q.     S S E E E  E
E|-1-----3-1-0-1-13-10|-8-------7-------|-7------8-7-6-7-17-15|
B|--------------------|-----------------|---------------------|
G|--------------------|-----------------|---------------------|
D|--------------------|-----------------|---------------------|
A|--------------------|-----------------|---------------------|
E|--------------------|-----------------|---------------------|
 |
 |
 |
 |
 |
 | E E E E   E E E  E   E E E E E E E E   E  E E E   E E E  E
E|--------------------|-----------------|---------------------|
B|-----3---------3----|---0-3-0---3-0---|------0---------0----|
G|---2---2-----2----2-|-----------------|--------------0----0-|
D|-0---------3--------|-3-------3-----3-|-0--3---3---0--------|
A|-8------------------|-----------------|---------------------|
E|--------------------|-3---------------|-3----------1--------|






   H       E  E  E  E   E E  S SS SE E SSSS  Q     Q     H
E|-15------13-12-10-8-|-9-10-12-13-2-3-5-7-|-8--------------------------|
B|--------------------|--------------------|----------------------------|
G|--------------------|--------------------|----------------------------|
D|--------------------|--------------------|----------------------------|
A|--------------------|--------------------|----------------------------|
E|--------------------|--------------------|----------------------------|
 |
 |
 |
 |
 |
 | E E E E E  E  E  E   E E  E  E  E E E E   SSS S SS SS S SS S S S S S
E|--------------------|--------------------|----------------0-1-3-5-8-10|
B|-----1--------------|----------------0---|-----------0-1-3--------12--|
G|---0---0----0-----2-|---2-----2----------|--0-----0-2-----------------|
D|-2-------2-----2----|-3----3-----0-3---3-|-2-3-2-3--------------------|
A|---------------0----|--------------------|----------------------------|
E|-0------------------|-1----------3-------|----------------------------|






   E E E E E    E   E    E    E E E E E   E   E   E    E E E E E E E E
E|--------------------------|------------------------|-----------------|
B|-----1------------1-------|-----1-----------1------|-----1-------1---|
G|---0---0------0--------0--|---0---0-----0-------0--|---2---2---2---2-|
D|-2-------2----------------|-2-------2--------------|-2-------2-------|
A|--------------------------|------------------------|-----------------|
E|--------------------------|------------------------|-----------------|
 |
 |
 |
 |
 |
 | H       S  S S S S  S S S  H       S S S S S S S S  Q.    E E E E E
E|---------10-8-7-8-10-8-7-5|---------5-3-2-3-5-3-1-0|-------------8-5-|
B|--------------------------|------------------------|-------1-0-1-----|
G|--------------------------|------------------------|-----------------|
D|--------------------------|------------------------|-----------------|
A|--------------------------|-3----------------------|-0---------------|
E|--------------------------|------------------------|-----------------|






   E E E E E E E E   E  E  E   E   E    E     E     E      E E E E E E E E
E|-----------------|-------------------------------------|-----------------|
B|-----3-------3---|-------3------------------3----------|---0-3-0---3-0---|
G|---2---2---2---2-|----2------2--------2-----------2----|-----------------|
D|-3-------3-------|-3-------------3---------------------|-3-------3-----3-|
A|-----------------|-------------------------------------|-----------------|
E|-----------------|-------------------------------------|-----------------|
 |
 |
 |
 |
 |
 | H       E E Q     S SES Q S S S S S  S  S  Q  S  S  S   H       E E Q
E|---------1-------|-1-3-1-0-1-3-5-7-80-12-12-15-13-12-10|---------7-------|
B|-----------------|-------------------------------------|-----------------|
G|-----------------|-------------------------------------|-----------------|
D|-----------------|-0-----------------------------------|-----------------|
A|-----------------|-------------------------------------|-----------------|
E|-----------------|-------------------------------------|-3---------------|






   E   E   E   E   E   E     E  E   E E E E E  E  E  E   E E E E E   E  E   E
E|--------------------------------|--------------------|----------------------|
B|---------0-----------------0----|-----1---------1----|-----1---1----------1-|
G|---------------------0--------0-|---0---0----2-----2-|---2---2--------2-----|
D|-0---3-------3---0--------------|-2-------2----------|-2-----------4--------|
A|--------------------------------|--------------------|----------------------|
E|--------------------------------|--------------------|----------------------|
 |
 |
 |
 |
 |
 | S S E S Q S S S SS  E  S  Q  E   H       E  E  Q  E   H       S S E SS S SS
E|-7-8-7-6-7-8-9-10-12-14-16-17-15|-15------13-12-10-8-|-8-------8-7-7--5-3-2-|
B|--------------------------------|--------------------|-------------10-------|
G|-0------------------------------|--------------------|----------------------|
D|-----------------3--------------|--------------------|---------0------------|
A|--------------------------------|---------0----------|----------------------|
E|-3---------------1--------------|-0------------------|----------------------|






   E E E E E E   E   E    E E E E E E    E   E    E E E E E  E   E   E
E|----------------------|-----------------------|-----------------------|
B|-0-3-0-----3---0------|---1---1------------1--|-0-3-0------3---0------|
G|-------0--------------|----------------2------|-------0---------------|
D|---------3---------3--|-2---1---0-4-----------|---------3----------3--|
A|----------------------|-----------------------|-----------------------|
E|----------------------|-----------------------|-----------------------|
 |
 |
 |
 |
 |
 | Q   Q   Q S S S S E S  H   Q   Q S  S S S E S  Q   Q   QS S S S S E S
E|-5---3-----5-3-2-3-5-7|-----8-----10-8-7-5-3-2|-----3----3-5-3-2-3-5-7|
B|---------0------------|-0-------0-------------|-0-------0-------------|
G|----------------------|-----------------------|-----------------------|
D|----------------------|-----------------------|-----------------------|
A|----------------------|-----------------------|-----------------------|
E|-3---3---------3------|----------------3------|-----3----------3------|






   E E E E E  E    E   E    E  E    E   S SE  E    E   S S  E. SE E H
E|------------------------|-------------------------------|-----3-----------|
B|---1---1-------------1--|-0-----------1--0-----------1--|-0--0------------|
G|-----------------2------|-------------------------------|-----------------|
D|-2---1---0--4-----------|-0-----------1--0-----------1--|-0--0------------|
A|------------------------|-------------------------------|-----------------|
E|------------------------|-------------------------------|-----------------|
 |
 |
 |
 |
 |
 | H   Q   QS S  S S S E S  QS S  S E S S SQS S  S E S S S  E E E E H
E|-----8----8-10-8-7-5-3-2|--3-10-8-7-5-3-2-3-10-8-7-5-3-2|-----15----------|
B|-0-------0--------------|-0--------------0--------------|-0---15----------|
G|------------------------|-------------------------------|-----0-----------|
D|------------------------|-------------------------------|-----0-----------|
A|------------------------|-------------------------------|-----------------|
E|-----------------3------|-------------3--------------3--|-----------------|







E|-------------------------|--------------------------|-----------------|
B|-------------------------|--------------------------|-----------------|
G|-------------------------|--------------------------|-----------------|
D|-------------------------|--------------------------|-----------------|
A|-------------------------|--------------------------|-----------------|
E|-------------------------|--------------------------|-----------------|
 |
 |
 |
 |
 |
 | H       S S S  S S S S S  S S SS S SSS S S SS S SSS  E E E E E E E E
E|-6-------4-6-8--6-4-3-1-3|-4-3-1-----1--------------|-----------------|
B|-------------------------|------4-3-4-4-3-1---------|-----------------|
G|--------------------0---0|---0--------------3--0--3-|-0---------------|
D|-8-------6-8-10-8-6---3--|-6---3--0--3--0----6---6-6|-----3---1---0---|
A|-------------------------|------6---6-6---3-1-----1-|-----------------|
E|-------------------------|-------------------4-3-4-4|-3---1-----------|






   H       E E E E   E E Q   H         H        E  E E  E   E E Q   H
E|-5+------5-4-5-0-|-2---------------|-10+------10-9-10-5-|-6----------------|
B|-----------------|-----------------|--------------------|------------------|
G|-----------------|-----------------|--------------------|------------------|
D|-----------------|-----------------|--------------------|------------------|
A|-----------------|-----------------|--------------------|------------------|
E|-----------------|-----------------|--------------------|------------------|
 |
 |
 |
 |
 |
 | E E Q   E E Q     E E E E E E E E   E  E Q   E  E Q      E E E E E E E  E
E|-----------------|-----------2-5-9-|-10-----------------|-------2-3-6-10-14|
B|-----------------|-------2-3-------|----------3---------|-3---3------------|
G|---------2-------|-2---2-----------|----------2---------|-3-3--------------|
D|---------2-------|-4-4-------------|-0--------4---------|-5----------------|
A|-4-------4-------|-5---------------|-0------------------|------------------|
E|-----------------|-----------------|-2------------------|------------------|






   E E E E E E  E  E   Q   Q        H               W
E|---------3-5--6--3-|-2--------------------------|-10------------------------|
B|-------2-----------|----------------------------|---------------------------|
G|---0-3-------------|----------------------------|---------------------------|
D|-------------------|----------------------------|---------------------------|
A|-------------------|----------------------------|---------------------------|
E|-------------------|----------------------------|---------------------------|
 |
 |
 |
 |
 |
 | H       E E  E  E   Q   Q  S S S H S S S S S SS  Q   S S S S S SS S S S S S
E|-15--------14-15-9-|-10+-10-9-8-7-6-5-4-3-2-1-0-|---------------------------|
B|-------------------|---------------------------4|-3+--3-2-1-0---------------|
G|-------------------|----------------------------|-------------3-2--0--------|
D|---------1---------|-0--------------------------|-0+--0----------6---4-3-2-1|
A|-------------------|----------------------------|-------4-3-2-1-0-----------|
E|-------------------|----------------------------|----------------4-3-2-1-0--|






   Q.    E Q.    E   E E E E E E E E   E E E SS H
E|-----------------|-----------------|--------7-10-------|
B|-3-----2-3-----2-|-3-2-3-2-1-0-----|----------13-------|
G|-----------------|-------------3-2-|-0-----------------|
D|-----------------|-----------------|-------------------|
A|-----------------|-----------------|-------------------|
E|-----------------|-----------------|-------------------|
 |
 |
 |
 |
 |
 | Q.    E Q.    E   E E E E E E E E   ESE E E  E  E E E
E|-----------------|-----------------|---------------3-3-|
B|-----------------|-------------0-0-|-0-0-0-0--2--2-3-3-|
G|-----------------|-----------------|---0-0-0-------0-0-|
D|-0-------0-------|-0---0-----------|---0-0-0--0--0-0-0-|
A|-------4-------4-|---4---4-3-2-----|---2-2-2--2--2-2-2-|
E|-----------------|-----------------|---3-3-3--3--3-----|






   Q   E  S S H            Q     H           E  E   E  E  E  E  E  E  E  E
E|----------7-10---------|-------10----------8----|-5-----2----------------|
B|------------13---------|------------------------|-------------3-----1----|
G|-----------------------|------------------------|------------------------|
D|-----------------------|------------------------|------------------------|
A|-----------------------|------------------------|------------------------|
E|-----------------------|------------------------|------------------------|
 |
 |
 |
 |
 |
 | E E E  E   E  E  E  E   E SE  E  E  E  E  E  E   E  E  E  E  E  E  E  E
E|-7-7-10-10-----15-79-79|-8--10-10-10-10-10-10-10|-10-10-10-10-10-10-10-10|
B|-0-0-02-02--0--15------|-10-------------------3-|------------------------|
G|-0-0-0--0------16------|-11-------------------5-|------------------------|
D|-0-0-12-12--0----------|----7--7--7--7--7--7--7-|-7--7--7--7--7--7--7--7-|
A|------------0----------|------------------------|------------------------|
E|------------0----------|------------------------|------------------------|
                              ?  ?  ?  ?  ?  ?  ?   ?  ?  ?  ?  ?  ?  ?  ?





   E E E SS H          Q   E  S S H            Q     H           E  E
E|--------7-10-------|----------7-10---------|-------10----------8----|
B|-0--------13-------|------------13---------|------------------------|
G|-------------------|-----------------------|------------------------|
D|-------------------|-----------------------|------------------------|
A|-------------------|-----------------------|------------------------|
E|-------------------|-----------------------|------------------------|
 |
 |
 |
 |
 |
 | SSE E E  E  E E E   E E E  E   E  E  E  E   E SE  E  E  E  E  E  E
E|---------------3-3-|-7-7-10-10--35-35-79-79|-8--10-10-00-10-10-10-10|
B|---0-0-0--0--0-3-3-|-0-0-02-02--35-35-8--8-|-10---------------------|
G|---0-0-0-------0-0-|-0-0-0--0---46-46------|-11-5--------5--------0-|
D|---0-0-0--0--0-0-0-|-0-0-12-12-------------|----7--7--7--7--7--7--7-|
A|---2-2-2--2--2-2-2-|-----------------------|------------------------|
E|-3-3-3-3--3--3-----|-----------------------|------------------------|
                                                  ?     ?  ?  ?  ?  ?





   E  E  E  E  E  E  E  E   SSS S S SS SS SS SS SS S  Q     E E H E Q
E|-5-----2----------------|---6-8-10-10-10-10-10-10-|-10--------9-------|
B|-------------3-----1----|-------------------------|-------------------|
G|------------------------|-3-----------------------|-------------------|
D|------------------------|-------------------------|-------------------|
A|------------------------|-------------------------|-------------------|
E|------------------------|-------------------------|-------------------|
 |
 |
 |
 |
 |
 | E  E  E  E  E  E  E  E   Q     Q     H             E S S SSSSSSSSSSSS
E|-10-10-10-10-10-10-10-10|-------------------------|---3-5-6-6-6-6-6-6-|
B|------------------------|-------------------------|-------------------|
G|-5--5--5--5--5--5--5--5-|-------------------------|-------------------|
D|-7--7--7--7--7--7--7--7-|-------------------------|-------------------|
A|------------------------|-------------1-----------|-------------------|
E|------------------------|-3-----------------------|-0-----------------|
   ?  ?  ?  ?  ?  ?  ?  ?





   E S S SSSSSSSSSSSS  H         E E Q     E S S SSSSSSSSSSSS
E|---5-6-8-8-8-8-8-8-|-8---------7-------|---3-5-6-6-6-6-6-6-|
B|-------------------|-------------------|-------------------|
G|-------------------|-------------------|-------------------|
D|-------------------|-------------------|-------------------|
A|-------------------|-------------------|-------------------|
E|-------------------|-------------------|-------------------|
 |
 |
 |
 |
 |
 | Q     Q   H         E S S SSSSSSSSSSSS  Q     Q   H
E|-------5-----------|---2-3-5-5-5-5-5-5-|-------3-----------|
B|-------------------|-------------------|-------------------|
G|-------------------|-------------------|-------------------|
D|-------------------|-------------------|-------------------|
A|-----------0-------|-------------------|-------------------|
E|-2-----------------|-------------------|-0---------3-------|






   Q     H       Q     Q.    S S H             Q.    S S Q.    S S
E|-6-----5-------6---|-7+----7-5-3+----------|-3-----5-3-5+----5-2|
B|-------------------|-----------------------|-------8-7----------|
G|-------------------|-----------------------|--------------------|
D|-------------------|-----------------------|--------------------|
A|-------------------|-----------------------|--------------------|
E|-------------------|-----------------------|--------------------|
 |
 |
 |
 |
 |
 | E S S SSSSSSSSSSSS  E SSSSS S E  S SS SS S  E SSSSS S E SSSSS S
E|---0-2-3-3-3-3-3-3-|---3-3-3---------------|--------------------|
B|-------------------|--------------0--0--0--|---0-0-0------------|
G|-------0-0-0-0-0-0-|---0-0-0------0--0--0--|---0-0-0-----2-2-2--|
D|-------------------|-----------0--12-12-12-|---0-0-0-----0-0-0--|
A|-------------------|-----------------------|-------------3-3-3--|
E|-------------------|-----------------------|--------------------|






   SSE SSE S SE SSE   SSE S SE S SE S SE   E E Q   H
E|-3------------3---|-7---10---15---19---|-----------------|-------------------|
B|-----0---3--------|--------------------|-0---------------|-------------------|
G|------------------|--------------------|-----------------|-------------------|
D|------------------|--------------------|-----------------|-------------------|
A|------------------|--------------------|-----------------|-------------------|
E|------------------|--------------------|-----------------|-------------------|
 |
 |
 |
 |
 |
 | SSSSSSSSE  SSSSSS  SSSSS SSSE  SSS SSS  SSSSE SSSSSSSSSS  E SSS SSSS SSSSSSS
E|---------10-------|----------10--------|-----------------|-17--14---10---8---|
B|---------13-------|----------13--------|-----0-------0---|-------------------|
G|------------------|--------------------|-----------------|-------------------|
D|---0-0-0-12-0-0-0-|---0-0--0-12-0-0--0-|---0---0-0-0---0-|---0-06-0-0--0-0-0-|
A|---2-2-2----2-2-2-|---2-2--2----2-2--2-|---3---3-3-3---3-|---3-0--3-0--3-0-3-|
E|-3----------------|-3------------------|-2---------------|----------8----8---|






   Q   SSE S SE SSE   SSE S SE S SE S SE   E E Q   H
E|--------------3---|-6---10---15---18---|-----------------|--------------------|
B|---------3--------|--------------------|-0---------------|--------------------|
G|-----3------------|--------------------|-----------------|--------------------|
D|------------------|--------------------|-----------------|--------------------|
A|------------------|--------------------|-----------------|--------------------|
E|------------------|--------------------|-----------------|--------------------|
 |
 |
 |
 |
 |
 | SSSSSSSSE  SSSSSS  SSSSS SSSE  SSS SSS  SSSSE SSSSSSSSSS  E SES SSSS SSSS SSS
E|-6-------10-------|----------10--------|-----------------|-17--14---10---8----|
B|---------13-------|----------13--------|-----0-------0---|--------------------|
G|------------------|--------------------|-----------------|--------------------|
D|-8-0-0-0-12-0-0-0-|---0-0--0----0-0--0-|---0---0-0-0---0-|---0-16-0-02-0-00-0-|
A|---1-1-1----1-1-1-|---1-1--1----1-1--1-|---3---3-3-3---3-|---3----3-0--3-0--3-|
E|-3----------------|-3------------------|-2---------------|----------8----8----|






                            E S  S  S SS SS SS SS SS S  Q     Q     H
E|------------------------|---15-17-18-18-18-18-18-18-|-18----17---------------|
B|------------------------|---------------------------|------------------------|
G|------------------------|---------------------------|------------------------|
D|------------------------|---------------------------|------------------------|
A|------------------------|---------------------------|------------------------|
E|------------------------|---------------------------|------------------------|
 |
 |
 |
 |
 |
 | E S S S SS SE S SS SS S  H             E  E  Q       H S S S SS SE E SQ SS S
E|---6-8-10-10---10-10-10-|---------------9-----------|---5-6-8--8----8--8--8--|
B|------------------------|---------------------------|------------------------|
G|------------------------|---------------------------|------------------------|
D|-------12-12---12-12-12-|---------------11----------|-------10-10---10-10-10-|
A|-------------1----------|---------------------------|-------------0----------|
E|-3----------------------|-0-------------------------|-2-----------0----------|






   E S  S  S SS SS SS SS SS S  E E   Q    H         E S  S  S SS SS SS SS SS S
E|---14-15-17-17-17-17-17-17-|-07----15-----------|---12-14-15-15-15-15-15-15-|
B|---------------------------|-0------------------|---------------------------|
G|---------------------------|--------------------|---------------------------|
D|---------------------------|--------------------|---------------------------|
A|---------------------------|--------------------|---------------------------|
E|---------------------------|--------------------|---------------------------|
 |
 |
 |
 |
 |
 | H             E  E  Q       E S S S SSSE SSSSSS  Q       H           Q
E|---------------7-----------|---3-5-6--6---6-6-6-|---------5-----------6-----|
B|---------------0-----------|--------------------|---------------------------|
G|---------------------------|--------------------|---------------------------|
D|---------------------------|-------8--8---8-8-8-|---------7-----------8-----|
A|---------------------------|--------------------|---------------------------|
E|---------------------------|-0----------3-------|---------------------------|






   Q   H         Q     E E E E   E E E  E   SSS SS S SS S  S S SS S SS
E|-15--10--------7+--|-7-3----------------|-----------0-2--3-2-0------|
B|-------------------|-----3-0---1-3-1--3-|-0----0-1-3----------3-1-0-|
G|-------------------|--------------------|---0-2--------------------2|
D|-------------------|--------------------|---------------------------|
A|-------------------|--------------------|---------------------------|
E|-------------------|--------------------|---------------------------|
 |
 |
 |
 |
 |
 | Q.  E.S S Q   Q     Q   E S S Q   E.  S  Q    Q      Q       Q
E|-7+----7-5-3-------|-------5-3-5-------2|-------------15------------|
B|-0+----0-----------|---------7----------|-------------15------------|
G|---------2-0-------|--------------------|------0------16------0-----|
D|-----0-------------|-----0-----7---0---4|-------------17------------|
A|-----------2-------|--------------------|---------------------------|
E|---------------3---|--------------------|-3----3--------------3-----|






   SSS SS S SS S  SS S SS SS  SSSS SS S SS S SS S SS S
E|-----------0-1--0---------|------------0-1-0--------|
B|------0-1-3------3-1-0----|-------0-1-3-----3-1-0---|
G|-0-0-2----------------2-0-|----0-2---------------2-0|
D|--4----------------------3|-2-3---------------------|
A|--------------------------|-------------------------|
E|--------------------------|-------------------------|
 |
 |
 |
 |
 |
 | Q    Q      Q       Q      Q    Q     Q      Q
E|-------------19-----------|-------------------------|
B|-------------18-----------|------------0------------|
G|------0------19------0----|------0------------0-----|
D|--------------------------|-------------------------|
A|--------------------------|-------------------------|
E|-3----3--------------3----|-3----3------------3-----|






   SSS SS  S SS S S S S S S  S  S   E E   E   E     H
E|------------0-2-3-5-7-8-10-12-14|-15--------------3-------------------|
B|------0--1-3--------------------|-------------------------------------|
G|---0-2--------------------------|-------0-----------------------------|
D|-4------------------------------|-------------------------------------|
A|--------------------------------|-------------------------------------|
E|--------------------------------|-------------------------------------|
 |
 |
 |
 |
 |
 | Q    Q       Q       Q           E E S S S E  S  Q  S  S  S  S  S E S
E|------17------------------------|---3-5-7-8-10-12-14-15-14-12-10-8-7-5|
B|------16------------------------|-------------------------------------|
G|------07--------------0---------|-------0---------------------0-------|
D|--------------------------------|-------0---------------------0-------|
A|--------------------------------|-------2---------------------2-------|
E|-3------------3-------3---------|-3-----3---------------------3-------|






   Q      E   E     H                   Q     E   E    H
E|------------------7-----------------|----------------8+---------------|
B|--------0---------------------------|-------1-------------------------|
G|------------------------------------|---------------------------------|
D|------------------------------------|---------------------------------|
A|------------------------------------|---------------------------------|
E|------------------------------------|---------------------------------|
 |
 |
 |
 |
 |
 | SS E S S S E  S  Q  S  S  S S S E S  E E S S S E S  Q  S  S  S SS E S
E|--2-3-5-7-8-10-12-13-12-10-8-7-5-3-1|---1-3-5-7-8-10-12-13-12-10-7-5-3|
B|------------------------------------|---------------------------------|
G|------------------------------------|---------------------------------|
D|--------3--------------------3------|-------2-------------------2-----|
A|--------5--------------------5------|-------3-------------------3-----|
E|-3------3--------------------3------|-3-----3-------------------3-----|






   Q     E  E  Q      S  S SS  Q       Q       H
E|-8-----------11-----10---8-|-7------------------------------|
B|-------4-------------------|--------------------------------|
G|---------------------------|--------------------------------|
D|---------------------------|--------------------------------|
A|---------------------------|--------------------------------|
E|---------------------------|--------------------------------|
 |
 |
 |
 |
 |
 | SS E SSS E SS S E SS  S ES  S S S S S S S S S S S S S S S S
E|--3-5-6-6-5-3--------------|---------------0-2-3-2-0--------|
B|---------------4-3-1-------|---------0-1-3-----------3-1-0--|
G|--------------------3--2-0-|-0---0-2-----------0-----------2|
D|-------1------------0-----4|---4---------0-2-4---4-2-0------|
A|-------3------------3------|-------0-2-3---------------3-2-0|
E|-3-----3-----3------3------|-3-2-3--------------------------|






   H.      E SS S  S  S S  Q    H.                     H.      E SS S  S  S S
E|-3+---------3-3+-5--3-2|-8----7--------------------|-3+---------3-3+-5--3-2|
B|-----------------8-----|---------------------------|-----------------8-----|
G|-----------------12----|---------------------------|-----------------12----|
D|-----------------------|---------------------------|-----------------------|
A|-----------------------|---------------------------|-----------------------|
E|-----------------------|---------------------------|-----------------------|
 |
 |
 |
 |
 |
 | Q   Q   Q    Q          QSS SS  S ES H S S SS S SS  Q   Q   H
E|-----------------------|------------0-2-3-2-0------|-----------------------|
B|-----------------------|------0--1-3---------3-1-0-|-----------------------|
G|-0---------------------|---0-2--------------------2|-0---------------------|
D|-----------------------|--4------------------------|-----------------------|
A|-----------------------|---------------------------|-----------------------|
E|-3---2---1----0--------|------3--------------------|-----------------------|





[ Tab from: http://www.guitartabs.cc/tabs/l/ludwig_van_beethoven/sonata_for_violin_and_piano_tab.html ]
   Q     H.                     H.      E SS S  S  S S  H          H
E|-12----10-------------------|-3+---------3-3+-5--3-2|-10---------12----------|
B|----------------------------|-----------------8-----|------------------------|
G|----------------------------|-----------------12----|------------------------|
D|----------------------------|-----------------------|------------------------|
A|----------------------------|-----------------------|------------------------|
E|----------------------------|-----------------------|------------------------|
 |
 |
 |
 |
 |
 | Q SS SS  S ES H S S SS S SS  Q   Q   Q    Q          S SS SSS SSS SS SSS S S
E|-------------0-2-3-2-0------|-----------------------|---------------0-1-5-7-8|
B|-------0--1-3---------3-1-0-|-----0---0----0--------|-0---------0--3---------|
G|----0-2--------------------2|-0---------------------|----0-2-0-2-------------|
D|---4------------------------|-----------------------|---4--------------------|
A|----------------------------|-----------------------|------------------------|
E|-------3--------------------|-----------------------|-------2----1-----0-----|






   H                 H            H       S  S  S  S  S  S  S  S
E|-13----------------7----------|-0-------19-17-16-17-19-17-16-14|
B|------------------------------|-17-----------------------------|
G|------------------------------|--------------------------------|
D|------------------------------|--------------------------------|
A|------------------------------|--------------------------------|
E|------------------------------|--------------------------------|
 |
 |
 |
 |
 |
 | S S  S  S  S S S SSSS S SS SS  H       H
E|---13-12-10-8-7-5-3-0---------|--------------------------------|
B|---------------------3-1-0----|--------------------------------|
G|--------------------------2-0-|--------------------------------|
D|-----------------------------3|--------------------------------|
A|------------------------------|--------------------------------|
E|-------------------3----------|-0------------------------------|






   E E Q   S S S S S S S S  E E Q   SS S SSS S S  E E E E E E E E
E|-12------7-5-4-5-7-5-4-2|-0-------------------|-----------------|
B|------------------------|---------0-----0-----|-----------------|
G|------------------------|----------2-1-2-2-1--|-----------------|
D|------------------------|--------------------4|-2---2---2---2---|
A|------------------------|---------------------|-----------------|
E|------------------------|---------------------|-----------------|
 |
 |
 |
 |
 |
 | H       S S S S S S S S  E E Q   SS S SSS S S  E E E E E E E E
E|------------------------|---------------------|-----------------|
B|---------0-------0------|----------0-0-0-0-0-0|-0---0---0---0---|
G|-----------2---2---2----|---------------------|-----------------|
D|-------------6-------6-4|-2-------------------|-----------------|
A|---------2-0---0-2-0----|---------2-----2-----|-----------------|
E|-------------4-------4-2|-0-------------------|-----------------|






   SSE SSE S SE SSE   SSE SSE S SE S SE   E  E Q   H
E|--------------1---|-5---8---13---17---|-18----------------|-------------------|
B|---------1--------|-------------------|-------------------|-------------------|
G|-----2------------|-------------------|-------------------|-------------------|
D|-3----------------|-------------------|-------------------|-------------------|
A|------------------|-------------------|-------------------|-------------------|
E|------------------|-------------------|-------------------|-------------------|
 |
 |
 |
 |
 |
 | ESSSSSSSE  SSSSSS  SSSSSSSSE  SSS SSS  S SSSE SSSSSSS SSS  E  SSS SSSSSSSSSSS
E|---------8--------|---------8---------|--------------18---|-15---0----8---6---|
B|-0-------11-------|---------11--------|------0------------|------17---1-------|
G|------------------|-------------------|--------------15---|---------------3---|
D|---------10-------|---------10--------|-------------------|-17----------------|
A|---0-0-0-0--0-0-0-|---0-0-0-0--0-0--0-|----3---3-3-3----3-|----3-3--3-3-3-3-1-|
E|---8-8-8-8--8-8---|-1-8-8-8-8--8-8----|-0--6---6-6-6----6-|-0--6----6---6-6---|






   Q   SSE SSE SSE   SSE SSE S SE S SE   E  E Q   H
E|-------------1---|-4---8---13---16---|-18----------------|-------------------|
B|---------1-------|-------------------|-------------------|-------------------|
G|-----1-----------|-------------------|-------------------|-------------------|
D|-----------------|-------------------|-------------------|-------------------|
A|-----------------|-------------------|-------------------|-------------------|
E|-----------------|-------------------|-------------------|-------------------|
 |
 |
 |
 |
 |
 | SSSSSSSSE SSSSSS  SSSSSSSSE  SSS SSS  S SSSE SSSSSSS SSS  E  SSS SSSSSSSSSSS
E|-4-------8-------|---------8---------|--------------18---|-15---0----8---6---|
B|---------1-------|---------1---------|------0------------|------17---1-------|
G|-----------------|-------------------|--------------15---|---------------3---|
D|-6---------------|-------------------|-------------------|-17----------------|
A|---3-3-3-3-3-3-3-|---3-3-3-3--3-3--3-|----3---3-3-3----3-|----3-3--3-3-3-3-1-|
E|-1-4-4-4---4-4-4-|-1-4-4-4----4-4--4-|-0--6---6-6-6----6-|-0--6----6---6-6---|






   SSSS S SSS S SSS S SSS  S SSS S SSS S SSS S SSS  E  E H         E   E
E|--0-1-4-0-1-4-0-1-4-0-1|-4-0-1-4-0-1-7-0-1-8-0-1|-10---15--------13-----|
B|-----------------------|------------------------|-----------------------|
G|-----------------------|------------------------|-----------------------|
D|-3---------------------|------------------------|-----------------------|
A|-----------------------|------------------------|-----------------------|
E|-----------------------|------------------------|-----------------------|
 |
 |
 |
 |
 |
 | E E  H           Q      Q     Q     Q     Q      S SSSS SSS SSSSS  SSS
E|-4----1----------------|------------------------|-------------3--7--3-10|
B|------------------1----|------------------------|------0---3-0--3-------|
G|-----------------------|------------------------|---0----0--------------|
D|-6----3----------------|-6-----3----------------|-----0-----------------|
A|------------------3----|-------------4-----3----|-2---------------------|
E|-1---------------------|-4-----1----------------|-----------------------|






   E    E   E   E  E E E E   SSSS S  SSS S  SSS S  SSS
E|-10-------7------3---1---|--7-8-11-7-8-11-7-8-11-7-8|
B|-------------------------|-4------------------------|
G|-------------------------|--------------------------|
D|-------------------------|--------------------------|
A|-------------------------|--------------------------|
E|-------------------------|--------------------------|
 |
 |
 |
 |
 |
 | S  S SS  S  SSS SSSSSSSS  E E  H             Q
E|-7--15-13-10-7-3-1-------|--------------------------|
B|------------------3-0----|------1-------------------|
G|---------------------0---|--------------------0-----|
D|----------------------3-0|-1------------------------|
A|-------------------------|------3-------------------|
E|-------------------------|--------------------3-----|






   S  SSS S  SSS S  SSS S  SSS  E  E H         E E   E   E  E  E  E E  E E
E|-11-7-8-11-7-8-14-7-8-15-7-8|-17---10--------8---|-5------2--------------|
B|----------------------------|--------------------|--------------3----1---|
G|----------------------------|--------------------|-----------------------|
D|----------------------------|--------------------|-----------------------|
A|----------------------------|--------------------|-----------------------|
E|----------------------------|--------------------|-----------------------|
 |
 |
 |
 |
 |
 | Q      Q      Q      Q       S SSSS  SSSSSSSSSSS  S S SS S SSS SSSS SSSS
E|----------------------------|----------------2--5|-2-10-8-5-2------------|
B|---------------0------0-----|-0-----------3---3--|------------3-1--------|
G|----------------------------|-----------2---2----|---------------2-------|
D|-1--------------------------|---0--4--0--4-------|-----------------4-0---|
A|--------3-------------------|-----0--------------|--------------------3-0|
E|----------------------------|--------------------|-----------------------|






   SSSS S SSS S SSS S SSS  S SSS S SSS S SSS S  SSS  E  E H         E  E
E|--2-3-6-2-3-6-2-3-6-2-3|-6-2-3-6-2-3-9-2-3-10-2-3|-12---15--------15---|
B|-----------------------|-------------------------|---------------------|
G|-3---------------------|-------------------------|---------------------|
D|-----------------------|-------------------------|---------------------|
A|-----------------------|-------------------------|---------------------|
E|-----------------------|-------------------------|---------------------|
 |
 |
 |
 |
 |
 | E E  H           Q      Q     Q     Q     Q       S SSSS  SSSSSSSS SSS
E|-----------------------|-------------------------|--------------------0|
B|-0---------------------|-0-----0-----0-----0-----|-0--------------2----|
G|------0----------------|-------------------------|-------------2----2--|
D|------------------0----|-------------------------|-----------2---2-----|
A|-----------------------|-------------------------|---0--4--0--4--------|
E|------3----------------|-------------------------|-----0---------------|






   E  E  E E  E E  E E   SSSSSSSSSSSSSSSS  SSSSSSSSSSSSSSSS  E E H        E   E
E|-12----9----5----3---|-----1---1---1---|-1---1---4---5---|-7---0--------0-----|
B|---------------------|--2-3-2-3-2-3-2-3|--2-3-2-3-2-3-2-3|-----17-------15----|
G|---------------------|-----------------|-----------------|--------------------|
D|---------------------|-0---------------|-----------------|--------------------|
A|---------------------|-----------------|-----------------|--------------------|
E|---------------------|-----------------|-----------------|--------------------|
 |
 |
 |
 |
 |
 | S SSS SSSS SSSS SSSS  E E H       Q     Q   Q   Q   Q     SSSSS SSSSSSSS  SSS
E|---5-3-0-------------|-----------------|-----------------|-----------0--4--0-7|
B|-2------2------------|-0---3-----------|---------0---0---|---------0---0------|
G|----------2-0--------|-------------2---|-----------------|-----1----1---------|
D|-------------2-------|-----0-----------|-3---0-----------|--2----2------------|
A|---------------4-0---|-------------0---|-----------------|----2---------------|
E|------------------3-0|-----------------|-1---------------|-0------------------|






   E E H        E   E   E E H             E    E   E E H             E    E
E|-----8--------8-----|-----8-------------8------|-----8-------------8------|
B|-----10-------10----|-----10------------10-----|-----10------------10-----|
G|-2------------------|--------------------------|--------------------------|
D|--------------------|-3------------------------|-1------------------------|
A|--------------------|--------------------------|--------------------------|
E|--------------------|--------------------------|--------------------------|
 |
 |
 |
 |
 |
 | SSSSS SSSSSSSS  SSS  SSSSS  SSS S S SS S  S SS  SSSSS  SSS S S SS S  S SS
E|-----------0--5--0-8|--1--5--1-8-5-13-8-17-13--|--2--5--2-8-5-14-8-17-14--|
B|---------1---1------|----1--------------------0|----1--------------------0|
G|-----2----2---------|--------------------------|--------------------------|
D|--2----2------------|--------------------------|--------------------------|
A|----3---------------|--------------------------|--------------------------|
E|-0------------------|-1------------------------|--------------------------|






   E   E   Q       H
E|-7------------------------------|
B|-9------------------------------|
G|--------------------------------|
D|--------------------------------|
A|--------------------------------|
E|--------------------------------|
 |
 |
 |
 |
 |
 | S S S S S S S S S S S S S S S S
E|-19-----------------------------|
B|---0-0-0-0-0-0-0-0-0-0-0-0-0-0-0|
G|--------------------------------|
D|--------------------------------|
A|--------------------------------|
E|--------------------------------|






   S  S  S  S  S  S  S  S  S  S  S  S  S  S  S  S
E|-12-11-12-11-12-11-12-11-12-11-12-11-12-11-12-11|
B|------------------------------------------------|
G|------------------------------------------------|
D|------------------------------------------------|
A|------------------------------------------------|
E|------------------------------------------------|
 |
 |
 |
 |
 |
 | Q           Q           Q           Q
E|-------------12----------10----------8----------|
B|-0-----------13----------12----------10---------|
G|------------------------------------------------|
D|------------------------------------------------|
A|------------------------------------------------|
E|------------------------------------------------|






   E    E   Q       H
E|-12------------------------------|
B|---------------------------------|
G|---------------------------------|
D|---------------------------------|
A|---------------------------------|
E|---------------------------------|
 |
 |
 |
 |
 |
 | S  S S S S S S S S S S S S S S S
E|-7-------------------------------|
B|-9--0-0-0-0-0-0-0-0-0-0-0-0-0-0-0|
G|---------------------------------|
D|---------------------------------|
A|---------------------------------|
E|---------------------------------|






   S  S  S  S  S  S  S  S  S  S  S  S  S  S  S  S
E|-12-11-12-11-12-11-12-11-12-11-12-11-12-11-12-11|
B|------------------------------------------------|
G|------------------------------------------------|
D|------------------------------------------------|
A|------------------------------------------------|
E|------------------------------------------------|
 |
 |
 |
 |
 |
 | Q           Q           Q           Q
E|-------------0-----------7-----------5----------|
B|-0-----------13---------------------------------|
G|-------------------------7-----------5----------|
D|------------------------------------------------|
A|------------------------------------------------|
E|------------------------------------------------|






   E    E   Q       H                S S S S S S S S S S S S S S S S
E|-12------------------------------|-0---0---0---0---0---0---0---0--|
B|---------------------------------|---4---4---4---4-5-4---4---4---4|
G|---------------------------------|--------------------------------|
D|---------------------------------|--------------------------------|
A|---------------------------------|--------------------------------|
E|---------------------------------|--------------------------------|
 |
 |
 |
 |
 |
 | S  S S S S S S S S S S S S S S S  S S S S S S S S S S S S S S S S
E|-4-------------------------------|--------------------------------|
B|-0--0-0-0-0-0-0-0-0-0-0-0-0-0-0-0|-0-0-0-0-0-0-0-0-0-0-0-0-0-0-0-0|
G|---------------------------------|--------------------------------|
D|---------------------------------|--------------------------------|
A|---------------------------------|--------------------------------|
E|---------------------------------|--------------------------------|






   SS  S  S  S  S  S  S  S  S  S  S  S  S  S  S
E|-0---0-----0-----0-----0-----0-----0-----0----|
B|--4-----4-----4-----4--5--4-----4-----4-----4-|
G|----------------------------------------------|
D|----------------------------------------------|
A|----------------------------------------------|
E|----------------------------------------------|
 |
 |
 |
 |
 |
 | SS  S  S  S  S  S  S  S  S  S  S  S  S  S  S
E|--11-12-11-12-11-12-11-12-11-12-11-12-11-12-11|
B|-0--------------------------------------------|
G|----------------------------------------------|
D|----------------------------------------------|
A|----------------------------------------------|
E|----------------------------------------------|






   S  S  S  S  S  S  S  S  S  S  S  S  S  S  S  S   SSE E E E    E   E    E
E|-0-----0-----0-----0-----0-----0-----0-----0----|-0------------------------|
B|----4-----4-----4-----4--5--4-----4-----4-----4-|-----1------------1-------|
G|------------------------------------------------|---0---0------0--------0--|
D|------------------------------------------------|---------2----------------|
A|------------------------------------------------|--------------------------|
E|------------------------------------------------|--------------------------|
 |
 |
 |
 |
 |
 | S  S  S  S  S  S  S  S  S  S  S  S  S  S  S  S   H       S  S S S S  S S S
E|-12-11-12-11-12-11-12-11-12-11-12-11-12-11-12-11|---------10-8-7-8-10-8-7-5|
B|------------------------------------------------|--------------------------|
G|------------------------------------------------|--------------------------|
D|------------------------------------------------|--------------------------|
A|------------------------------------------------|--------------------------|
E|------------------------------------------------|--------------------------|






   E E E E E   E   E   E    E E E E E E E E   E E E E E E E E
E|------------------------|-----------------|-----------------|
B|-----1-----------1------|-----1-------1---|-----3-------3---|
G|---0---0-----0-------0--|---2---2---2---2-|---2---2---2---2-|
D|-2-------2--------------|-2-------2-------|-3-------3-------|
A|------------------------|-----------------|-----------------|
E|------------------------|-----------------|-----------------|
 |
 |
 |
 |
 |
 | H       H S S S S S S S  Q.    E H E E E   H       E E Q
E|-3-------5-3-2-3-5-3-1-0|-------------8-5-|---------1-------|
B|------------------------|-3-----1-0-1-----|-----------------|
G|------------------------|-----------------|-----------------|
D|------------------------|-----------------|-----------------|
A|-3----------------------|-0---------------|-----------------|
E|------------------------|-----------------|-----------------|






   E  E  E   E   E    E     E     E      E E E E SSE E E
E|-------------------------------------|-----------1-----|
B|-------3------------------3----------|---0-3-0-----3-0-|
G|----2------2--------2-----------2----|-----------------|
D|-3-------------3---------------------|-3-------3-------|
A|-------------------------------------|-----------------|
E|-------------------------------------|-----------------|
 |
 |
 |
 |
 |
 | S SES Q S S S S S  S  S  Q  S  S  S   H       E E Q
E|-1-3-1-0-1-3-5-7-80-12-12-15-13-12-10|---------7-------|
B|-------------------------------------|-----------------|
G|-------------------------------------|-----------------|
D|-0-----------------------------------|-----------------|
A|-------------------------------------|-----------------|
E|-------------------------------------|-3---------------|






   E   E   E   E    E     E     E  E   E E E E E  E  E  E   E E  E  E  E E SSSS
E|-----------------------------------|-----0------------0-|---5--1--5----1-----|
B|-----0---3---0----------0-----3--0-|---1---1----1-------|------------3-------|
G|------------------0----------------|-0-------0----------|-2------------------|
D|-3---------------------------------|---------------2----|----------------0-3-|
A|-----------------------------------|--------------------|--------------------|
E|-----------------------------------|--------------------|--------------------|
 |
 |
 |
 |
 |
 | S S E S Q S S S  S  S  E  S  Q  E   H       Q  E  E  E   E E  E  E SE E E ES
E|-7-8-7-6-7-8-9-10-11-12-14-16-17-15|-15------13-12-10-8-|-9-10-12-13-2-3-5-7-|
B|-----------------------------------|--------------------|--------------------|
G|-0---------------------------------|---------------2----|------------0-------|
D|------------------3----------------|-2------------------|-3----0-------------|
A|-----------------------------------|--------------------|--------------------|
E|-----------------------------------|--------------------|----------------3---|






   SSS S SS SS S SS S S S S S   H       S  S S S S  S S S
E|----------------0-1-3-5-8-10|-12------10-8-7-8-10-8-7-5|
B|-----------0-1-3--------12--|--------------------------|
G|--0-----0-2-----------------|--------------------------|
D|-2-3-2-3--------------------|--------------------------|
A|----------------------------|--------------------------|
E|----------------------------|--------------------------|
 |
 |
 |
 |
 |
 | Q     Q     H                E E E E E    E   E    E
E|-8--------------------------|--------------------------|
B|----------------------------|-----1------------1-------|
G|----------------------------|---0---0------0--------0--|
D|----------------------------|---------2----------------|
A|-3--------------------------|--------------------------|
E|----------------------------|--------------------------|






   H       S S S S S S S S  Q.    E E E E E   H       E E Q
E|-3-------5-3-2-3-5-3-1-0|-------------8-5-|-3-------2-------|
B|------------------------|-3-----1-0-1-----|-----------------|
G|------------------------|-----------------|-----------------|
D|------------------------|-----------------|-----------------|
A|------------------------|-----------------|-----------------|
E|------------------------|-----------------|-----------------|
 |
 |
 |
 |
 |
 | E E E E E   E   E   E    E E E E E E E E   E E E E E E E E
E|------------------------|-----------------|-----------------|
B|-----1-----------1------|-----1-------1---|-----------------|
G|---0---0-----0-------0--|---2---2---2---2-|-----2-------2---|
D|-2-------2--------------|---------2-------|-1-4---4-1-4---4-|
A|-3----------------------|-0---------------|-----------------|
E|------------------------|-----------------|-----------------|






   Q.     S S E E E  E   H       E E Q     Q.    S S E E E  E
E|-1------3-1-0-1-13-10|-8-------7-------|-6-----8-6-5-6-18-15|
B|---------------------|-----------------|--------------------|
G|---------------------|-----------------|--------------------|
D|---------------------|-----------------|--------------------|
A|---------------------|-----------------|--------------------|
E|---------------------|-----------------|--------------------|
 |
 |
 |
 |
 |
 | E  E E E   E E E  E   E E E E E E E E   E E E E   E E E  E
E|---------------------|-----------------|--------------------|
B|---------------------|-----0-------0---|--------------------|
G|------1---------1----|---1---1---1---1-|---0-3-0-----0-3--0-|
D|-0--3---3---0-3----3-|-0-------0-------|--------------------|
A|---------------------|-----------------|-4---------4--------|
E|---------------------|-1-----1-0-1-4-1-|-1---------0--------|






   H       E  E Q       E  E  S SS SE  E  S SS S  E  E  S SS SE  E SSSS
E|-13------12---12+---|-12-13-13-13-13-11-11-11-|-11-10-10-10-10-8-8-8-|
B|--------------------|-------------------------|----------------------|
G|--------------------|-------------------------|----------------------|
D|--------------------|-------------------------|----------------------|
A|--------------------|-------------------------|----------------------|
E|--------------------|-------------------------|----------------------|
 |
 |
 |
 |
 |
 | E E E E E  E E   E   E  E  E  E  E  E  E  E    E  E  Q  E  Q  E E E
E|--------------------|-------------------------|----------------------|
B|-----2--------------|-------1--0--0-----1-----|-------1--0--0--------|
G|---0---0----0-3---0-|----------------0-----0--|----1-----------2---2-|
D|--------------------|----3--------------------|-0----------------1---|
A|-4-----1-0--1-4---1-|-3-----------------------|----------------------|
E|-6-------9----------|-4--------------------3--|-1------------------2-|






   SSE E E E E   E   E    E E E E E E    E   E    SSE E E E  E   E   E
E|-7--------------------|-----------------------|-----------------------|
B|---3-0-----3---0------|---4-1-----1--------1--|-0-3-0------3---0------|
G|-------0--------------|-------0---------------|-------0---------------|
D|---------3---------3--|-1-------1------1------|-0-------3----------3--|
A|----------------------|-----------------------|-----------------------|
E|----------------------|-----------------------|-----------------------|
 |
 |
 |
 |
 |
 | Q   Q   Q S S S S E S  H   Q   Q S  S S S E S  Q   Q   QS S S S S E S
E|-----------5-3-2-3-5-7|-----8-----10-8-6-4-3-2|-----3----3-5-3-2-3-5-7|
B|-0-------0------------|-0-------0-------------|-0-------0-------------|
G|----------------------|-----------------------|-----------------------|
D|----------------------|-----------------------|-----------------------|
A|----------------------|-----------------------|-----------------------|
E|-----3---------3------|----------------3------|-----3----------3------|






   E E E E E  E    E   E    E  E    E   S SE  E    E   S S  E E S SE H
E|------------------------|-------------------------------|-----3------------|
B|---4-1------1--------1--|-0-----------1--0-----------1--|-0---0------------|
G|-------0----------------|-------------------------------|------------------|
D|-1-------1-------1------|-0-----------1--0-----------1--|-0---0------------|
A|------------------------|-------------------------------|------------------|
E|------------------------|-------------------------------|------------------|
 |
 |
 |
 |
 |
 | H   Q   QS S  S S S E S  QS S  S E S S SQS S  S E S S S  E E E  E H
E|-----8----8-10-8-6-4-3-2|--7-10-8-6-4-3-2-7-10-8-6-4-3-2|-----15-----------|
B|-0-------0--------------|-0--------------0--------------|-0---15-----------|
G|------------------------|-------------------------------|-----0------------|
D|------------------------|-------------------------------|-----0------------|
A|------------------------|-------------------------------|-----2------------|
E|-----------------3------|-------------3--------------3--|-----3------------|







E|----------------------|------------------------------|-----------------|
B|----------------------|------------------------------|-----------------|
G|----------------------|------------------------------|-----------------|
D|----------------------|------------------------------|-----------------|
A|----------------------|------------------------------|-----------------|
E|----------------------|------------------------------|-----------------|
 |
 |
 |
 |
 |
 | H       S S S S S SSS  S SS S S S S S S SS S S S S S  E E E E E E E E
E|-4-------2-4-6-4-2-1-1|-2-1--------------------------|-----------------|
B|--------------------4-|----4-2-1-2-4-2-1-------------|-----------------|
G|----------------------|------------------3-----------|-----------------|
D|-6-------4-6-8-6-4-3-3|-4-3---------------6-4-3-4-6-4|-3---1-----------|
A|--------------------6-|----6-4-3-4-6-4-3-1-----------|---------4---3---|
E|----------------------|-------------------4-2-1-2-4-2|-1---------------|






   H       E E E E   E E Q   H         H       E E E E   E E Q   H
E|-3+------3-2-3---|-----------------|-8+------8-7-8-3-|-4----------------|
B|---------------3-|-4---------------|-----------------|------------------|
G|-----------------|-----------------|-----------------|------------------|
D|-----------------|-----------------|-----------------|------------------|
A|-----------------|-----------------|-----------------|------------------|
E|-----------------|-----------------|-----------------|------------------|
 |
 |
 |
 |
 |
 | E E Q   E E Q     E E E E E E E E   E E Q   E E Q     E E E E E E E  E
E|-----------------|-----------3-8-7-|-----------------|-------1-4-8-13-16|
B|-----------------|-------1-4-------|---------1-------|-1---1------------|
G|---------0-------|-0---0-----------|---------0-------|-1-1--------------|
D|---------0-------|-1-1-------------|---------2-------|-3----------------|
A|-2-------2-------|-3---------------|-3---------------|------------------|
E|-----------------|-----------------|-0---------------|------------------|






   E E E E E E  E  E   Q   Q           H
E|-------2-8-10-11-8-|-7--------------------------------|
B|---1-4-------------|----------------------------------|
G|-------------------|----------------------------------|
D|-------------------|----------------------------------|
A|-------------------|----------------------------------|
E|-------------------|----------------------------------|
 |
 |
 |
 |
 |
 | H       E E  E  E   Q   Q  S  S  S  H  S  S S S S S S
E|-----------19----14|-15+-15-14-13-12-11-10-9-8-7-6-5-4|
B|-0------------0----|----------------------------------|
G|-------------------|-0--------------------------------|
D|---------6---------|----------------------------------|
A|-------------------|----------------------------------|
E|---------4---------|----------------------------------|






   W                          Q.    E Q.    E   E E E E E E E E
E|-15-----------------------|-3-----2-3-----2-|-3-2-3-2-1-0-----|
B|--------------------------|-----------------|-------------4-3-|
G|--------------------------|-----------------|-----------------|
D|--------------------------|-----------------|-----------------|
A|--------------------------|-----------------|-----------------|
E|--------------------------|-----------------|-----------------|
 |
 |
 |
 |
 |
 | Q   S S S SS S S S S S SS  Q.    E Q.    E   ESESSSESE E E E
E|-3+--3-2-1-0--------------|-----------------|-----------------|
B|------------4-3-2-1-0-----|-----------------|-----------------|
G|-0+--0----------------3-2-|-0-------0-------|-0---0-----------|
D|-------4-3-2--0----------6|-------4-------4-|---4---4-3-2-1-0-|
A|------------6---4-3-2-1-0-|-----------------|-----------------|
E|-------------------------4|-3-----2-3-----2-|-----------------|






   E E Q   H          H       Q     Q      Q   H        E  E   E  E E E E E E E
E|---------15-------|---------15---------|-----15-------13---|-10---7---3---1---|
B|-1-------18-------|---------18---------|-------------------|------------------|
G|------------------|--------------------|-------------------|------------------|
D|------------------|--------------------|-------------------|------------------|
A|------------------|--------------------|-------------------|------------------|
E|------------------|--------------------|-------------------|------------------|
 |
 |
 |
 |
 |
 | E E E E E  E E E   E E E E E  E  E  E   ESE E  E E E E  E   E  E E E E E E E
E|--------------0-0-|-0-0-8-8-02-02-35-35|-3-3-3--3-3-3-3--3-|-3--3-3-3-3-3-3-3-|
B|---------1--1-1-1-|-8-8-1-1-13-13-5--5-|-6-----------------|------------------|
G|---------0--0-0-0-|-0-0-0-0-02-02-5--5-|-7-0-0--0-0-0-0--0-|-0--0-0-0-0-0-0-0-|
D|---------2--2-2-2-|-2-2-2-2------------|---3-3--3-3-3-3--3-|-3--3-3-3-3-3-3-3-|
A|---------3--3-3-3-|-3-3----------------|---5-5--5-5-5-5--5-|-5--5-5-5-5-5-5-5-|
E|---0-0-0-0--0-3-3-|--------------------|---7-7--7-7-7-7--7-|-7--7-7-7-7-7-7-7-|






   E E Q   H          H       Q     Q      Q   H        E  E   E  E E E E E E E
E|-0-------15-------|---------15---------|-----15-------13---|-10---7---3---1---|
B|---------18-------|---------18---------|-------------------|------------------|
G|------------------|--------------------|-------------------|------------------|
D|------------------|--------------------|-------------------|------------------|
A|------------------|--------------------|-------------------|------------------|
E|------------------|--------------------|-------------------|------------------|
 |
 |
 |
 |
 |
 | SSE E E E  E E E   E E E E E  E  E  E   ESE E  E E E E  E   E  E E E E E E E
E|-0------------0-0-|-0-0-8-8-02-02-35-35|-3-3-3--3-3-3-3--3-|-3--3-3-3-3-3-3-3-|
B|-8-------1--1-1-1-|-8-8-1-1-13-13-5--5-|-6-----------------|------------------|
G|-0-------0--0-0-0-|-0-0-0-0-02-02-5--5-|-7-0-0--0-0-0-0--0-|-0--0-0-0-0-0-0-0-|
D|-2-------2--2-2-2-|-2-2-2-2------------|---3-3--3-3-3-3--3-|-3--3-3-3-3-3-3-3-|
A|-3-------3--3-3-3-|-3-3----------------|---5-5--5-5-5-5--5-|-5--5-5-5-5-5-5-5-|
E|-------0-3--0-3-3-|--------------------|---7-7--7-7-7-7--7-|-7--7-7-7-7-7-7-7-|






   SSS  S  S SS SS SS SS SS S  H            E  E  Q
E|---11-13-15-15-15-15-15-15-|-15-----------14----------|
B|-4-------------------------|--------------------------|
G|---------------------------|--------------------------|
D|---------------------------|--------------------------|
A|---------------------------|--------------------------|
E|---------------------------|--------------------------|
 |
 |
 |
 |
 |
 | Q       Q     H             E S S  S SS SS SS SS SS S
E|---------------------------|---8-10-11-11-11-11-11-11-|
B|---------------------------|--------------------------|
G|---------------------------|--------------------------|
D|---------------1-----------|--------------------------|
A|-3-------------------------|-0------------------------|
E|---------------------------|--------------------------|






   E S  S  S SS SS SS SS SS S  H           E  E  Q
E|---10-11-13-13-13-13-13-13-|-13----------12----------|
B|---------------------------|-------------------------|
G|---------------------------|-------------------------|
D|---------------------------|-------------------------|
A|---------------------------|-------------------------|
E|---------------------------|-------------------------|
 |
 |
 |
 |
 |
 | Q       Q     H             E S S S SS SS SS SS SS S
E|---------10----------------|---7-8-10-10-10-10-10-10-|
B|---------------------------|-------------------------|
G|---------------------------|-------------------------|
D|---------------0-----------|-------------------------|
A|-2-------------------------|-------------------------|
E|---------------------------|-4-----------------------|






   E S S  S SS SS SS SS SS S  Q     H           Q       Q.       S  S  H
E|---8-10-11-11-11-11-11-11-|-11----10----------11----|-12+------12-10-8+-------|
B|--------------------------|-------------------------|-------------------------|
G|--------------------------|-------------------------|-------------------------|
D|--------------------------|-------------------------|-------------------------|
A|--------------------------|-------------------------|-------------------------|
E|--------------------------|-------------------------|-------------------------|
 |
 |
 |
 |
 |
 | Q      Q     H             E S S S SS SS SS SS SS S  E  S SS SS  S  E  SSSSSS
E|--------8-----------------|---5-7-8--8--8--8--8--8--|----8--8--8--------3-3-3-|
B|--------------------------|-------------------------|-------------------5-5-5-|
G|--------------------------|-------------------------|----------------0--5-5-5-|
D|--------------------------|-------10-10-10-10-10-10-|----10-10-10-------------|
A|-0------------3-----------|-------------------------|-------------------------|
E|--------------------------|-2-----------------------|-3--------------3--------|






   Q.    S  S  Q.     S  S  SSE SSE S SE SSE   SSE SSE S SE S SE
E|-8-----10-8--10+----10-7|-8----------------|-0---3---8----12---|
B|----------12-13+----13--|--------------1---|-------------------|
G|------------------------|---------0--------|-------------------|
D|------------------------|-----2------------|-------------------|
A|------------------------|------------------|-------------------|
E|------------------------|------------------|-------------------|
 |
 |
 |
 |
 |
 | E SSSSS  S  E  SSSSS  S  E SSSSSSE  E E SS  E SSSSSSE  E E  SS
E|---0-0-0----------------|---------15-------|---------15--------|
B|---1-1-1--------3-3-3---|-1-------18-------|---------18--------|
G|---0-0-0--------0-0-0---|-0----------------|-------------------|
D|----------------3-3-3---|-2-------17-------|---------17--------|
A|------------------------|------------------|-------------------|
E|-3-----------3----------|---0-0-0--------3-|---3-3-3---------3-|






   E E Q   H                            Q   SSE S SE SSE   SSE SSE S SE S SE
E|-13---------------|-----------------|------------------|-----3---8----11---|
B|------------------|-----------------|--------------1---|-4-----------------|
G|------------------|-----------------|---------0--------|-------------------|
D|------------------|-----------------|-----1------------|-------------------|
A|------------------|-----------------|------------------|-------------------|
E|------------------|-----------------|------------------|-------------------|
 |
 |
 |
 |
 |
 | Q   E E E SSS SE   Q E SSE SSE SSSS  E SSSSSSE  SSSSSS  E SSSSSSE  SSS SSS
E|-----15------13---|-10--7---3---1---|---------15-------|---------15--------|
B|------------------|-----0-----------|-4----------------|-------------------|
G|------------------|---------0-------|------------------|-------------------|
D|-----17------15---|-12----------3---|---------17-------|---------17--------|
A|------------------|-----------------|-6----------------|-------------------|
E|-----------1------|-----3---3-----1-|---3-3-3----3-3-3-|---3-3-3----3-3--3-|






   E E Q   H
E|-13---------------|-----------------|--------------------------|
B|------------------|-----------------|--------------------------|
G|------------------|-----------------|--------------------------|
D|------------------|-----------------|--------------------------|
A|------------------|-----------------|--------------------------|
E|------------------|-----------------|--------------------------|
 |
 |
 |
 |
 |
 | Q   E E E SSS SE   Q E SSE SSE SSSS  E E  S  Q SS SE E SE SS S
E|-----15------13---|-10--7---3---1---|---11-13-15-15---15-15-35-|
B|------------------|-----0-----------|-4------------------------|
G|------------------|---------0-------|--------------------------|
D|-----17------15---|-12----------3---|-1-------17-17-1-17-17----|
A|------------------|-----------------|-3------------------------|
E|-----------1------|-----3---3-----1-|--------------------------|






   E S S SSSSS SSSSSSS  Q       Q     H             E S S S SS SS SS SS SS S
E|--------------------|---------------------------|---7-8-10-10-10-10-10-10-|
B|---1-3-4-4-4--4-4-4-|-4-------3-----------------|-------------------------|
G|--------------------|---------------------------|-------------------------|
D|--------------------|---------------------------|-------------------------|
A|--------------------|---------------------------|-------------------------|
E|--------------------|---------------------------|-------------------------|
 |
 |
 |
 |
 |
 | H         Q    Q     E E  S  Q SS SE  E SE SS S  H           E  E  Q
E|-----------14-------|---10-11-13-13-13-13-13-13-|-------------0-----------|
B|--------------------|---------------------------|-------------17----------|
G|--------------------|---------------------------|-------------------------|
D|-----------16-------|---------15-15-05-15-15----|-------------------------|
A|-0------------------|-2-------------------------|-------------------------|
E|--------------------|---------------------------|-4-----------------------|






   Q      Q     H            E S  S S SSSSSSSS SSS  Q   H         Q
E|-10-----8----------------|---17-19--------------|-----15--------12+-|
B|-------------------------|--------0--0-0-0-0--0-|-0-----------------|
G|-------------------------|----------------------|-------------------|
D|-------------------------|----------------------|-------------------|
A|-------------------------|----------------------|-------------------|
E|-------------------------|----------------------|-------------------|
 |
 |
 |
 |
 |
 | E S S  S SS SE S SS SS S  Q      H        Q      Q   E. S  Q   Q
E|---8-10-11-11---11-11-11-|--------10-------11---|-0------10-8-------|
B|-------------------------|----------------------|-17-----3----------|
G|-------------------------|----------------------|-----0-------------|
D|--------13-13---13-13-13-|--------12-------13---|-----------20------|
A|-0------------3----------|----------------------|---------------3---|
E|-------------------------|-2--------------------|-----3-----0-------|






   E  E E E    E E E E   SSS SS S S S S S S S S S SS
E|-12-8-3-0----1-------|------0-1-3-5-7-8-7-5-3-1-0-|
B|---------------3-0---|---1-3---------------------3|
G|---------------------|----------------------------|
D|-------------------3-|-2--------------------------|
A|---------------------|----------------------------|
E|---------------------|----------------------------|
 |
 |
 |
 |
 |
 | Q    E S  S Q   E. S  Q    Q       Q       Q
E|--------10-8-10-----7|--------------8-------------|
B|-----------12-------0|------1-------8-------1-----|
G|---------------------|--------------9-------------|
D|-------------12------|----------------------------|
A|---------------------|------3---------------3-----|
E|-3----3----------3---|----------------------------|






   S S S SS S S S S  S S S SS SS  SSSS SS S S S  S S S S SS S
E|--------0-1-3-5-6--5-3-1-0----|-------0-1-3-5--6-5-3-1-0---|
B|-1-0-1-3------------------3-1-|----1-3------------------3-1|
G|-----------------------------3|-2-3------------------------|
D|------------------------------|----------------------------|
A|------------------------------|----------------------------|
E|------------------------------|----------------------------|
 |
 |
 |
 |
 |
 | Q      Q       Q        Q      Q    Q      Q        Q
E|----------------0-------------|-------------13-------------|
B|--------1-------17-------1----|------1------10-------1-----|
G|----------------15------------|-------------10-------------|
D|----------------17------------|----------------------------|
A|-3------3----------------3----|-3----3---------------3-----|
E|------------------------------|----------------------------|






   S S SS S  SS S S S SS S  S S S  E E   E   E     H
E|------0-1--0---------0-1--3-5-7|-8---------------8----------------|
B|-0-1-3------3-1-0-1-3----------|-------1--------------------------|
G|-------------------------------|----------------------------------|
D|-------------------------------|----------------------------------|
A|-------------------------------|----------------------------------|
E|-------------------------------|----------------------------------|
 |
 |
 |
 |
 |
 | Q      Q       Q      Q         E S S SS  S  S  S SS  S SS  S  S
E|--------10-------------10------|---8-10-13-15-17-19-19-17-13-12-10|
B|--------1--------------1-------|-------1-----------0-----1--------|
G|--------10-------------10------|-------0-----------------0--------|
D|-------------------------------|-------2-----------------2--------|
A|-3------3-------3------3-------|-3-----3-----------------3--------|
E|-------------------------------|----------------------------------|






   Q       E     E     H
E|---------0-----------12-------------------|
B|------------------------------------------|
G|------------------------------------------|
D|------------------------------------------|
A|------------------------------------------|
E|------------------------------------------|
 |
 |
 |
 |
 |
 | SS E S  S  S  E  S  Q  S  S  S  S  S  E S
E|--7-8-10-12-13-15-17-18-17-15-13-12-10-8-6|
B|------------------------------------------|
G|---------0-----------------------0--------|
D|---------8-----------------------8--------|
A|-3----------------------------------------|
E|---------8-----------------------8--------|






   Q     E     E     H                     Q         E     E   Q      S  S S  S
E|-------1-----------13+-----------------|-13--------4---------16-----15---13--|
B|---------------------------------------|-------------------------------------|
G|---------------------------------------|-------------------------------------|
D|---------------------------------------|-------------------------------------|
A|---------------------------------------|-------------------------------------|
E|---------------------------------------|-------------------------------------|
 |
 |
 |
 |
 |
 | E E S S  S  E  S  Q   S  S  S SS  E  S  S S E  S  S  S  E  SS S E SS  S E  S
E|---6-8-10-12-13-15-17--18-17-15-12-10-8|---8-10-11-13-11-10-8--4-3-1---------|
B|---------------------------------------|----------------------------4--3-1--0|
G|-------2-----------------------2-------|-----------1----------------0--------|
D|-------3-----------------------3-------|-----------0----------------0--------|
A|-3-----3-----------------------3-------|-3---------8---------3------8--------|
E|---------------------------------------|-----------8----------------8--------|






   E    E   Q       H                H.      E SS S  S  S S
E|-12------------------------------|-8+---------8-8+-10-8-7|
B|---------------------------------|-----------------13----|
G|---------------------------------|-----------------17----|
D|---------------------------------|-----------------------|
A|---------------------------------|-----------------------|
E|---------------------------------|-----------------------|
 |
 |
 |
 |
 |
 | S  S S S S S S S S S S S S S S S  Q   Q   Q    Q
E|----------0-1-3-5-7-8-7-5-3-1-0--|-----------------------|
B|-1--0-1-3---------0---0---------3|-1---------------------|
G|--------------0-----------0------|-----------------------|
D|--------0-2-3---7---10--7---3-2-0|-----------------------|
A|-3--2-3--------------------------|-3---2---1----0--------|
E|---------------------------------|-----------------------|






   Q      H.                       H.      E SS S  S  S S
E|-13-----12---------------------|-8+---------8-8+-10-8-7|
B|-------------------------------|-----------------13----|
G|-------------------------------|-----------------17----|
D|-------------------------------|-----------------------|
A|-------------------------------|-----------------------|
E|-------------------------------|-----------------------|
 |
 |
 |
 |
 |
 | S S E SS  S E S H S S S S S SS  Q   Q   Q    Q
E|--------0--1-3-5-7-8-7-5-3-1-0-|-----------------------|
B|---0-1-3----------------------3|-1---------------------|
G|-------------------------------|-----------------------|
D|-------------------------------|-----------------------|
A|--------3----------------------|-----------------------|
E|-4------3----------------------|-----4---3----2--------|






   Q      H.                       H.      E SS S  S  S S
E|-17-----15---------------------|-8+---------8-8+-10-8-7|
B|-------------------------------|-----------------13----|
G|-------------------------------|-----------------17----|
D|-------------------------------|-----------------------|
A|-------------------------------|-----------------------|
E|-------------------------------|-----------------------|
 |
 |
 |
 |
 |
 | S S E SS  S E S H S S S S S SS  Q   Q   H
E|--------0--1-3-5-7-8-7-5-3-1-0-|-----------------------|
B|---0-1-3----------------------3|-1---------------------|
G|-------------------------------|-----------------------|
D|-------------------------------|-----------------------|
A|--------3----------------------|-----------------------|
E|-1------0----------------------|-----------------------|






   H           H                 H                    H
E|-15----------17--------------|-18-------------------12-----------|
B|-----------------------------|-----------------------------------|
G|-----------------------------|-----------------------------------|
D|-----------------------------|-----------------------------------|
A|-----------------------------|-----------------------------------|
E|-----------------------------|-----------------------------------|
 |
 |
 |
 |
 |
 | Q S S SSS ESS S E SSS  E  S   S S  S  S  S  S  S  SS S S S SS SS
E|--------0---0--3-5-6-10-12-13|---18-17-15-13-12-10-8--5-3-1-0----|
B|---0-1-3-1-3-----------------|-------------------------------3-1-|
G|-----------------------------|----------------------------------3|
D|-----------------------------|-----------------------------------|
A|--------2----1------0--------|-----------------------------------|
E|-----------------------------|-3---------------------------------|






   H       S  S  S S  S  S  S S  E E Q   H
E|-17------12-10-9-10-12-10-9-7|-5----------------------|
B|-----------------------------|------------------------|
G|-----------------------------|------------------------|
D|-19--------------------------|------------------------|
A|-----------------------------|------------------------|
E|-----------------------------|------------------------|
 |
 |
 |
 |
 |
 |                               H       S S S S S S S S
E|-----------------------------|---------0-------0------|
B|-----------------------------|-----------3-2-3---3-2-0|
G|-----------------------------|------------------------|
D|-----------------------------|---------2-0---0-2-0----|
A|-----------------------------|-------------4-------4-2|
E|-----------------------------|------------------------|






   H       S S S S S S S S  E E E E E E E E   H       S S S S S S S S
E|---------0-------0------|-----------------|---------1-------1------|
B|-----------3-2-3---3-2-0|-----------------|-----------4-3-4---4-3-1|
G|------------------------|-2---2---2---2---|-3----------------------|
D|------------------------|-----------------|------------------------|
A|------------------------|-----------------|------------------------|
E|------------------------|-----------------|------------------------|
 |
 |
 |
 |
 |
 | E E Q   S S S S S S S S  E E E E E E E E   H       S S S S S S S S
E|------------------------|-----------------|------------------------|
B|------------------------|-0---0---0---0---|-0----------------------|
G|-2----------------------|-----------------|------------------------|
D|---------2-0---0-2-0----|-----------------|---------3-1-0-1-3-1-0--|
A|-0-----------4-------4-2|-----------------|-----------------------3|
E|---------0-------0------|-----------------|---------1-------1------|






   E E E E E E E E   Q   S S S S S S S S Q     Q   S S S S S S S S Q
E|-----------------|-----3-1-0-1-3-1-0-------|-----5-3-1-3-5-3-1-0-----|
B|-0---0---0---0---|-1-----------------3-2---|-3-------------------4---|
G|-----------------|-------------------------|-------------------------|
D|-----------------|-------------------------|-------------------------|
A|-----------------|-------------------------|-------------------------|
E|-----------------|-------------------------|-------------------------|
 |
 |
 |
 |
 |
 | E E E E E E E E   Q   S S S S S S S S Q     Q   S S S S S S S S Q
E|-----------------|-------------------------|-------------------------|
B|-----------------|-------------------------|-------------------------|
G|-----------------|-----0-------0-----------|-----2-0---0-2-0---------|
D|-----------------|-------3-2-3---3-2-0-----|-0-------3-------3-2-1---|
A|-2---2---2---2---|-3-------------------4---|-----0-------0-----------|
E|-----------------|-----3-1-0-1-3-1-0-------|-------3-1-3---3-1-0-----|






   Q.    E Q.    E   E E E E E E E  E   E  E Q   H
E|-0-----1-2-----3-|-4-5-6-7-8-9-10-11|-12---------------|
B|-----------------|------------------|------------------|
G|-----------------|------------------|------------------|
D|-----------------|------------------|------------------|
A|-----------------|------------------|------------------|
E|-----------------|------------------|------------------|
 |
 |
 |
 |
 |
 | Q.    E Q.    E   E E E E E E E  E   E  E E E E E E E
E|-----------------|------------------|-0--1-2-3-4-5-6-7-|
B|-----------------|-------0-1-2-3--4-|----------------0-|
G|---------------0-|---2-3------------|--------0---------|
D|-2-----3-4-------|-6-----------0----|-2--3-4---6-7-8---|
A|-----------------|---0-1-2-3-4----6-|------------------|
E|-0-----1-2-----3-|-4----------------|------------------|






                           E E E E  E  E  E  E   SSE  E E  E  E  E E
E|-----------------------|-------------0--1--2-|-3-----------------0-|
B|-----------------------|-----0-2--3----------|--------0--1--3--4---|
G|-----------------------|---2-----------------|---0--2--------------|
D|-----------------------|---------------------|---------------------|
A|-----------------------|---------------------|---------------------|
E|-----------------------|---------------------|---------------------|
 |
 |
 |
 |
 |
 | E  E  E  E  E E  E  E   Q.  E E  E  E  E  E   SSE  E E  E  E  E E
E|-8--9--10-11-0-13-15-16|-17----15-13-12-10-8-|-7-15---13-12-10-8-6-|
B|-------------17--------|----------3----------|-----------1---------|
G|-----------------------|-----2---------------|-0----0--------------|
D|-10-11-12-13---15-17-18|-19-------------0----|---------------------|
A|-----------------------|---------------------|-----------------3---|
E|-----------------------|---------------------|---------------------|






   SSQ    E  E  E  E  E    S SQ   E  E  E  E  E   SSE  E  E  E E  E E
E|-1-5----3--1--0--------|----3---1--0----------|---5--10-8+-8-2--7-5+|
B|-----------------3--1--|-0------------3--1----|---------------------|
G|-----------------------|--------------------3-|-2-------------------|
D|-----------------------|----------------------|---------------------|
A|-----------------------|----------------------|---------------------|
E|-----------------------|----------------------|---------------------|
 |
 |
 |
 |
 |
 | SSE E  E  E  E  S SS S  S SE E E  E  E  E  E   E E  E  E  E E  E E
E|-5-9-10-12-13-15-17-17-|-10-7-8-10-12-13-15-15|---13----12---11---9-|
B|-----------------------|----------------------|---------------------|
G|-----------------------|-0--------------------|---------------------|
D|-3---------0--2--3--4--|--------------0--1--2-|-3-0-----------------|
A|---0-2--4--------------|------0-2--3----------|------2--3--0-2----0-|
E|-----------------------|----3-----------------|-----------------4---|






   E E E E E E E E   Q   Q   Q   Q     Q   Q   Q   Q     Q   Q   H
E|-5---3-1-2---0---|-----------------|-----------------|-----------------|
B|---3-------0-----|-3-------1-------|-1-------0-------|-1---------------|
G|---------------2-|---------0-------|-----------------|-----------------|
D|-----------------|-----------------|-1-------1-------|-2---------------|
A|-----------------|-----------------|-----------------|-----------------|
E|-----------------|-----------------|-----------------|-----------------|
 |
 |
 |
 |
 |
 | E E E E E E Q E   Q   Q   Q   Q     Q   Q   Q   Q     Q   Q   H
E|---7-6-5---4---2-|-1---1-------0---|-----5-------8---|-----3-----------|
B|-----------------|-----3-------1---|-----4-------10--|-----5-----------|
G|-----------------|-----0-------0---|-----5-------8---|-----5-----------|
D|-----------------|-----------------|-------------10--|-----------------|
A|-----------------|-----------------|-----------------|-----------------|
E|-2-3-0-1---0-----|-----------------|-1-------2-------|-3---------------|






   S  S  S S S S S S S S S S S S S S  Q   Q   H
E|-13-10---7-1----------------------|-----------------|
B|-------------3---0---0---0-0-0---0|-1---------------|
G|----------------------------------|-----------------|
D|-------------------3-3---3-3-3---3|-2---------------|
A|----------------------------------|-----------------|
E|----------------------------------|-----------------|
 |
 |
 |
 |
 |
 | S  S  S S S S S S S S S S S S S S  SSSSSSSSSSSSSSSS
E|----------------------------------|-----------------|
B|-0--0--0-0-0-0-0-0-0-0-0-0-0-0-0-0|----1---1---1---0|
G|----------------------------------|--0---0---0---0--|
D|----------------------------------|-----2---2---2---|
A|----------------------------------|-----------------|
E|----------------------------------|-----------------|






   H         S  S  S  S  S  S  S  S   Q   Q   H
E|-13--------15-13-12-13-15-13-12-10|-8---------------|
B|----------------------------------|-----------------|
G|----------------------------------|-----------------|
D|----------------------------------|-----------------|
A|----------------------------------|-----------------|
E|----------------------------------|-----------------|
 |
 |
 |
 |
 |
 | S  SSSSSSSS  S  S  S  S  S  S  S   SSSSSSSSSSSSSSSS
E|----------------------------------|-----------------|
B|-0--3-0-3-0---3-----0-----3-----0-|----1---1---1---0|
G|----------------------------------|--0---0---0---0--|
D|-------3---3-----------3----------|-2---2---2---2---|
A|----------------------------------|-----------------|
E|----------------------------------|-----------------|






   H         S  S  S  S  S  S  S  S   Q   Q   H
E|-13--------15-13-12-13-15-13-12-10|-8---------------|
B|----------------------------------|-----------------|
G|----------------------------------|-----------------|
D|----------------------------------|-----------------|
A|----------------------------------|-----------------|
E|----------------------------------|-----------------|
 |
 |
 |
 |
 |
 | S  SSSSSSSS  S  S  S  S  S  S  S   E SSSSSSSSSSSSSS
E|----------------------------------|-----------------|
B|-0--3-0-3-0---3-----0-----3-----0-|----1---1---1---0|
G|----------------------------------|---0---0---0---0-|
D|-------3---3-----------3----------|-2---2---2---2---|
A|----------------------------------|-----------------|
E|----------------------------------|-----------------|






   H          S  S  S  S  S  S  S  S   Q    Q    H
E|-13---------15-13-12-13-15-13-12-10|-8----10---12+-------|
B|-----------------------------------|---------------------|
G|-----------------------------------|---------------------|
D|-----------------------------------|---------------------|
A|-----------------------------------|---------------------|
E|-----------------------------------|---------------------|
 |
 |
 |
 |
 |
 | E  S SSSS SS  S  S  S  S  S  S  S   E SS E SS E   SSSSSS
E|-----------------------------------|----------------0---0|
B|-0--3-0--3-0------3--0--------3--0-|-0--1-0--3-0---0---0-|
G|-----------------------------------|---2----2--------1---|
D|-------3----3-----------3----------|---------------------|
A|-----------------------------------|---------------------|
E|-----------------------------------|---------------------|






   Q    E  E  Q      Q       SSSSSSSSSSSSSSSS  SSSSSSSSS  S  S  S  S  S  S  S
E|-12---13-12-10-----15----|-8---------------|--------------------------------|
B|-------------------------|----1---1---1---1|--3-0-3-0---3-----0-----3-----0-|
G|-------------------------|--0---0---0---0--|--------------------------------|
D|-------------------------|-----2---2---2---|-3---3---3-----------3----------|
A|-------------------------|-----------------|--------------------------------|
E|-------------------------|-----------------|--------------------------------|
 |
 |
 |
 |
 |
 | S SSSE  S SE  S S E  S S  H       Q   E SS  H       S  S  S  S  S  S  S  S
E|-----0-----0-------------|-----------------|---------15-13-12-13-15-13-12-10|
B|----0-0--1--0--1-3-0--0-3|----------------0|-0------------------------------|
G|-1-----------------------|-----------------|--------------------------------|
D|-------------------------|-----------------|--------------------------------|
A|-------------------------|-----------------|--------------------------------|
E|-------------------------|-----------------|--------------------------------|






   SSSSSSSSSSSSSSSS  SS  S  S  S  S  S  S  S  S  S  S  S  S  S  S
E|-----------------|----------------------------------------------|
B|----1---1---1---1|--3-----0-----3-----0-----3-----0-----3-----0-|
G|--0---0---0---0--|----------------------------------------------|
D|-2---2---2---2---|-3---------3-----------3-----------3----------|
A|-----------------|----------------------------------------------|
E|-----------------|----------------------------------------------|
 |
 |
 |
 |
 |
 | SSE Q   Q   E SS  SS  S  S  S  S  S  S  S  S  S  S  S  S  S  S
E|-8---------------|--13-12-13-15-13-12-13-15-13-12-13-15-13-12-10|
B|----------------0|-0--------------------------------------------|
G|-----------------|----------------------------------------------|
D|-----------------|----------------------------------------------|
A|-----------------|----------------------------------------------|
E|-----------------|----------------------------------------------|






   Q      Q       E   S  S  S  S  S  S  S S S  S S S S S S S S S S S S  S
E|--------------------17-15-13-12-10-8|-7-8-10-8-7-5-3-1-0-1-3-5-7-8-10-12|
B|------------------------------------|-----------------------------------|
G|------------------------------------|-----------------------------------|
D|-2----------------------------------|-----------------------------------|
A|------------------------------------|-----------------------------------|
E|------------------------------------|-----------------------------------|
 |
 |
 |
 |
 |
 | SS S S S S S S S S S  S  S  S  S  S  S S S  S S S S S S S S S S S S  S
E|--7-5-7-8-7-5-3-1-3-5--3--1--0------|---------------------------------0-|
B|--------------------------------3--1|-0-1-3--1-0---------------0-1-3----|
G|------------------0----0------------|------------2-0-------0-2----------|
D|----------------3---7-----3--2--0---|-----0----------3-2-3---------0--2-|
A|-----------------------------------3|-2-3----3-2-0-----------0-2-3------|
E|------------------------------------|--------------3-1-0-1-3------------|






   E E Q   E E Q     Q   Q   Q   E SS
E|-13------15------|-8---------------|-----------------|
B|-----------------|-5--------------1|-----------------|
G|-----------------|-5---------------|-----------------|
D|-----------------|-----------------|-----------------|
A|-----------------|-----------------|-----------------|
E|-----------------|-----------------|-----------------|
 |
 |
 |
 |
 |
 | E E Q   E E Q
E|-1---------------|-----------------|-----------------|
B|-----------------|-----------------|-----------------|
G|-----------------|-----------------|-----------------|
D|-3---------------|-----------------|-----------------|
A|-----------------|-----------------|-----------------|
E|-1-------3-------|-----------------|-----------------|




What do all the symbols mean?
-----------------------------

W - whole note (semibreve)
H - half note (minim)
Q - quarter note (crotchet)
E - 8th note (quaver)
S - 16th note (semiquaver)
T - 32nd note (demisemi quaver)
X - 64th note (hemidemisemi quaver)
? - Fret number not defined (note out of range)

If a dot appears after one of the above then it means that the note is 1.5
times as long, e.g. Q. is 3 8th notes long. Two dots means 1.75 times long.

If a '+' sign appears after a note then that note is tied to (held on to) the
next note.

 ______
|1.    | - play bar/s under this sign first time only in repeats

|2.    | - play bar/s under this sign second time only in repeats

|1.3.  | - play bar/s under this sign first and third time only in repeats

||
||*
||*      - Repeat back to this sign
||

 ||
*||
*||      - Repeat from this sign
 ||


|-3-|    - Triplet

___________________________________________________________
Created using Sibelius 3 - http://www.sibelius.com/
Comments