Ludwig Van Beethoven - Fur Elise Chords & Tabs

 

Fur Elise Chords & Tabs

Ludwig Van Beethoven Chords & Tabs

Version: 8 Type: Tab 0 ratings
1 star 2 stars 3 stars 4 stars 5 stars
comments

Fur Elise Tab

Für Elise
Ludwig Van Beethoven

|---------------------------------------------------|
|-(4)h5--4--(4)h5--4--(4)h5----------(2)/3--1-------|
|----------------------------(4)h5~-----------(1)2~~|
|---------------------------------------------------|
|---------------------------------------------------|
|---------------------------------------------------|

|---------------------------------------------------|
|---------------------------------------------------|
|-------2--4~~------------(3)h4--5~~----------------|
|----2----------2--(2)/5----------------------------|
|-3-------------------------------------------------|
|---------------------------------------------------|

|------------------------------------------------------|
|----(4)h5--4--(4)h5--4--(4)h5----------(2)/3--1-------|
|-------------------------------(4)h5~-----------(1)2~~|
|-2~---------------------------------------------------|
|------------------------------------------------------|
|------------------------------------------------------|

|---------------------------------------------------|
|-------------------------0-------------------------|
|-------2--4~~-----(4)h5-----(1)/3~~~---------------|
|----2----------2-----------------------------------|
|-3-------------------------------------------------|
|---------------------------------------------------|

|---------------------------------------------------|
|-(4)h5--4--(4)h5--4--(4)h5----------(2)/3--1-------|
|----------------------------(4)h5~-----------(1)2~~|
|---------------------------------------------------|
|---------------------------------------------------|
|---------------------------------------------------|

|---------------------------------------------------|
|---------------------------------------------------|
|-------2--4~~------------(3)h4--5~~----------------|
|----2----------2--(2)/5----------------------------|
|-3-------------------------------------------------|
|---------------------------------------------------|

|------------------------------------------------------|
|----(4)h5--4--(4)h5--4--(4)h5----------(2)/3--1-------|
|-------------------------------(4)h5~-----------(1)2~~|
|-2~---------------------------------------------------|
|------------------------------------------------------|
|------------------------------------------------------|

|---------------------------------------------------|
|-------------------------0-------------------------|
|-------2--4~~-----(4)h5-----(1)/3~~~---------------|
|----2----------2-----------------------------------|
|-3-------------------------------------------------|
|---------------------------------------------------|

|------------------------------1---------------------|
|----1--(1)/3--(3)/5~~------------(4)h5--(2)/3~------|
|-4--------------------------------------------------|
|-----------------------(4)h5------------------------|
|----------------------------------------------------|
|----------------------------------------------------|
[ Tab from: http://www.guitartabs.cc/tabs/l/ludwig_van_beethoven/fur_elise_tab_ver_8.html ]
|-------------------------------------------------------|
|--------(4)/5--(2)h3------------------(2)/3------------|
|----------------------(4)/5~~----------------5--(3)/4~~|
|-(2)h3-------------------------(1)h2-------------------|
|-------------------------------------------------------|
|-------------------------------------------------------|

|-------------------------------------------------------------------|
|----t(555)--t(444)--t(555)--t(444)--5~~~------(2)/3----------------|
|------------------------------------------4~---------(4)/5--(1)/2~~|
|-2-----------------------------------------------------------------|
|-------------------------------------------------------------------|
|-------------------------------------------------------------------|

|---------------------------------------------------|
|---------------------------------------------------|
|-------2--4~~------------(3)h4--5~~----------------|
|----2----------2--(2)/5----------------------------|
|-3-------------------------------------------------|
|---------------------------------------------------|

|------------------------------------------------------|
|----(4)h5--4--(4)h5--4--(4)h5----------(2)/3--1-------|
|-------------------------------(4)h5~-----------(1)2~~|
|-2~---------------------------------------------------|
|------------------------------------------------------|
|------------------------------------------------------|

|---------------------------------------------------|
|-------------------------0-------------------------|
|-------2--4~~-----(4)h5-----(1)/3~~~---------------|
|----2----------2-----------------------------------|
|-3-------------------------------------------------|
|---------------------------------------------------|

|---------------------------------------------------|
|-(4)h5--4--(4)h5--4--(4)h5----------(2)/3--1-------|
|----------------------------(4)h5~-----------(1)2~~|
|---------------------------------------------------|
|---------------------------------------------------|
|---------------------------------------------------|

|---------------------------------------------------|
|---------------------------------------------------|
|-------2--4~~------------(3)h4--5~~----------------|
|----2----------2--(2)/5----------------------------|
|-3-------------------------------------------------|
|---------------------------------------------------|

|------------------------------------------------------|
|----(4)h5--4--(4)h5--4--(4)h5----------(2)/3--1-------|
|-------------------------------(4)h5~-----------(1)2~~|
|-2~---------------------------------------------------|
|------------------------------------------------------|
|------------------------------------------------------|

|---------------------------------------------------|
|-------------------------0-------------------------|
|-------2--4~~-----(4)h5-----(1)/3~~~~~~~/0---------|
|----2----------2-----------------------------------|
|-3-------------------------------------------------|
|---------------------------------------------------|
Comments