Ludwig Van Beethoven - Fur Elise Chords & Tabs

 

Fur Elise Chords & Tabs

Ludwig Van Beethoven Chords & Tabs

Version: 2 Type: Bass Tab 0 ratings
1 star 2 stars 3 stars 4 stars 5 stars
comments

Fur Elise Bass Tab

G|12-11-12-11-12-7-10-8-5-0-4-5-7-0-5-7-8-0--|
D|-------------------------------------------|
A|-------------------------------------------|
E|-------------------------------------------|

G|12-11-12-11-12-7-10-8-5-0-4-5-7-0-8-6-5-0--|
D|-------------------------------------------|
A|-------------------------------------------|
E|-------------------------------------------|
[ Tab from: http://www.guitartabs.cc/tabs/l/ludwig_van_beethoven/fur_elise_btab_ver_2.html ]
G|8-10-12-0-13-12-10-0-12-10-8-0-10-8-6-0----|
D|-------------------------------------------|
A|-------------------------------------------|
E|-------------------------------------------|

G|-------------------------------------------|
D|------5---5-5------------------------------|
A|-------------------------------------------|
E|0-3-3---3----------------------------------|


Play twice after that i don't know, but this sounds very right on. Let me know
your opinion, the only other bass tab i didn't want to even take a second look at.
Comments