Ludwig Van Beethoven - 9th Symphony Chords & Tabs

 

9th Symphony Chords & Tabs

Ludwig Van Beethoven Chords & Tabs

Version: 3 Type: Tab 0 ratings
1 star 2 stars 3 stars 4 stars 5 stars
comments

9th Symphony Tab

Ludwig Van Beethoven
                              "Ode To Joy"
                            (Ninth Symphony)

E||---0-----0-----1-----3-----|--3-----1-----0-----------|
B||---------------------------|--------------------3-----|
G||*-----0-----0-----0-----0--|-----0-----0-----0-----0--|
D||*--------------0-----------|--------------------------|
A||---3-----------------------|--2-----------------------|
E||---------------------------|--------------3-----------|
      3           1     4        4     1     3     4
                                 2

E|--------------------0-----|--0--------------------|--0-----0-----1-----3-----|
B|--1-----1-----3-----------|-----------3--3--------|--------------------------|
G|-----0-----0-----0-----0--|-----0--------0--------|-----0-----0-----0-----0--|
D|--------------------------|--------2-----0--------|--------------0-----------|
A|--3-----------2-----------|--3--------------------|--3-----------------------|
E|--------------------------|--------------3--------|--------------------------|
    1           4              3     2     4
    3           2                          3

[ Tab from: http://www.guitartabs.cc/tabs/l/ludwig_van_beethoven/9th_symphony_tab_ver_3.html ]
E|--3-----1-----0-----------|--------------------0-----|-----------------------|
B|--------------------3-----|--1-----1-----3-----------|--3--------1--1--------|
G|-----0-----0-----0-----0--|-----------------------0--|-----0--------0--------|
D|--------------------------|-----2-----2-----0--------|--------------2--------|
A|--2-----------------------|--0-----------2-----------|--2-----------3--------|
E|--------------3-----------|--------------------------|--------3--------------|

E|------------0----------|-------0--1--0----------|-------0--1--0---------|
B|--3----3----------1----|--3----------1-----1----|--3----------0----3----|
G|----0----0-----0--0----|----0--0--2--------0----|-------0--2-------1----|
D|-----------------------|-------------2p-0--2----|-----------------------|
A|------------------3----|-------------------3----|-----------------------|
E|--3----1----0----------|--3---------------------|--3----------0----0----|
                                                                     4
                                                                     1


E|-----------------0----|-------0----1----3----|--3----1----0---------|
B|--1----3--------------|-------1---------0----|------------0----3----|
G|--2----2----0---------|-------0----2---------|--0---------0---------|
D|-------0----0---------|------------0---------|----------------------|
A|--0-------------------|--3-------------------|--2-------------------|
E|-------2----3---------|----------------------|------------3---------|
    1    4    3
    2    2
         1

E|-----------------0----|------------------------||
B|--1----1----3----1----|--3--------1--1---------||
G|--2----2----0---------|--0-----------0--------*||
D|--2-------------------|-----0--------2--------*||
A|--0---------2----3----|--2-----------3---------||
E|----------------------|--------3---------------||
Comments