Ludwig Van Beethoven - 5th Symphony Chords & Tabs

 

5th Symphony Chords & Tabs

Ludwig Van Beethoven Chords & Tabs

Version: 1 Type: Bass Tab 0 ratings
1 star 2 stars 3 stars 4 stars 5 stars
comments

5th Symphony Bass Tab

Symphony No. 5 By Ludwig Van Beethoven.
-First Movement only.

Standard Tuning.

These measures don't really explain the time signature;
they are just there to separate the different riffs. Although
they are broken up try to leave as little distance as possible.
Make sure you play every chord very bright and clear and always 
let the last chord in the bar ring.
After getting comfortable with all of the finger positioning
I recommend listening to the song and playing along.

Tabbed By mmd1486.


||--0-0-0------------|
||-------1--3-3-3-0--|
||-------------------|
||-------------------|

|--0-0-0---1-1-1-0--8-8-8-5--|--0-0-0--1-1-1-0--10-10-10-7---|
|-------1--------------------|-------0-----------------------|
|----------------------------|-------------------------------|
|----------------------------|-------------------------------|

|--12-12-10--------------|--12-12-10--------------|--12-12-10---8---5---4--|
|----------13--------12--|----------13--------12--|------------10---4---5--|
|--------------------10--|--------------------10--|------------10---6---5--|
|------------11-11-13----|------------11-11-13----|------------------------|


|--1-1-1-----|
|-------3----|
|------------|
|------------|

|--1-1-1-----------------|---1-1-1------------------|--4-4-4--5--|
|-------3-0-0-0----------|--1-----3-0-0-0-----------|--0-0-0--5--|
|--------------2---------|----------------2---------|------------|
|---------------4-4-4-3--|-----------------4-4-4-3--|------------|

|--0-5-5-5--|---------------|
|-----------|--9-9-9-12-12--|
|-----------|---------------|
|-----------|---------------|

|------------------------|  (Continue to next line quickly and smoothly)
|--10-10-10-13-13-12-12--|
|------------------------|
|------------------------|

|--10-10-9-9-12-12-10-10-13-13-12-12-15-15-13-13-17-17-16-16--19--|
|-----------------------------------------------------------------|
|-----------------------------------------------------------------|
|-----------------------------------------------------------------|
         Attn. 24 Fret Basses!   Find the bar below(16)at bottom of page.
|--20-20-20-17-----------------------|------------12-10-10-------------|
|-------------17-17-17-13------------|--15----------------12--9--------|
|------------------------15----------|----17-17-14-------------10-8----|
|--------------------------15-15-11--|-----------------------------10--|
[ Tab from: http://www.guitartabs.cc/tabs/l/ludwig_van_beethoven/5th_symphony_btab.html ]
|--20202017--------------------|--14-14-14---15---|
|-----------19191916-13131310--|--16-16-16---15---|
|------------------------------|--17-17-17---16---|
|------------------------------|------------------|


|-----------------|---8-7-8-10---------|
|-----------------|--8--------10-10-8--|
|---6-5-6-8-------|--------------------|
|--6-------8-8-6--|--------------------|

|-----------------|---------------------------------------------|
|-----------------|--8-10-11-10-8-108--11-13-15-13-11-13-11-10--|
|---6-5-6-8-------|------------------11-------------------------|
|--6-------8-8-6--|---------------------------------------------|

|--------17----17----15----15----14----14----14----14----14----14-14--13---|
|--13-15-16-15-13-15-16-15-13-15-16-15-13-15-16-15-13-15-16-15-16-13--15---|
|---------------------------------------------------------------------13---|
|--------------------------------------------------------------------------|


|--17-15-----------------------------|-------------------------0----|
|-------18-18-17-15--------------15--|---------------------------0--|
|------------------18-18-17-15-17----|--18-----17-15-----15-13------|
|------------------------------------|----18-15-----16-13-----------|

|--14-15-14-15-14-15-14-15-17-15--|
|---------------------------------|
|---------------------------------|
|---------------------------------|

|-------------------------------|-----------------------------|
|--18-18-17-15--------------15--|------------------------0-0--|
|-------------18-18-17-15-17----|--18-----17-15-----15-13-----|
|-------------------------------|----18-15-----16-13----------|

|--13-15-15-12--|
|---------------|
|---------------|
|---------------|

|-----------------------------------|------------|
|--17-17-17-13----------------------|--3-3-3--5--|
|--------------13-13-13-10-6-6-6----|--5-5-5--6--|
|--------------------------------6--|------------|

|-----------------------------------|--3-3-3--3--|
|--17-17-17-13----------------------|--3-3-3--5--|
|--------------13-13-13-10-6-6-6----|--5-5-5--6--|
|--------------------------------6--|------------|

|----15-15-15----15----------||
|----15-15-15----17---------o||
|----17-17-17----18---------o||
|----------------------------||
            Let this last chord ring long and hard.

End of first movement.



P.S. If your bass has at least 24 frets you can play bar 16 like this:
|--22--------------------------------|
|----24-24-21---17-15-15-12-9--------|
|----------------------------10-8----|
|--------------------------------10--|

Adios.
Comments