Ludo - Hum Along Chords & Tabs

 

Hum Along Chords & Tabs

Ludo Chords & Tabs

Version: 1 Type: Tab 0 ratings
1 star 2 stars 3 stars 4 stars 5 stars
comments

Hum Along Tab

   
alright, this band isnt that big, but they are awesome... and they dont have any tabs
on this site, so i thought i'd be the first to put them on here


Song: Hum Along
Artist: Ludo
Album: Ludo

Tabbed by: Josh

Two Guitars, both distorted, and as far as I can tell, both standard tuning



INTRO

Guitar 1
|----------------------------------|
|----------------------------------|
|-55555555555555-------------------|
|-55555555555555--555555555555555--| x2
|-33333333333333--555555555555555--|
|-----------------333333333333333--|
 PM.............  ...............   

Guitar 2 (comes in after Guitar 1 plays one time)
|------------------------------------|
|------------------------------------|
|-77--88--1010--88-------------------|
|-77--88--1010--88--555555555555555--| 
|-55--66---8-8--66--555555555555555--|
|-------------------333333333333333--|
PM..  ..  ....  ..  ...............

VERSE

Guitar 1
|----------------------------------|
|----------------------------------|
|-55555555555555-------------------|
|-55555555555555--555555555555555--|    Both Guitars just keep repeating
|-33333333333333--555555555555555--|    Below is just kind of a guide to 
|-----------------333333333333333--|    the lyrics
| PM.............  ...............      
|  You'll never hear this song 
Guitar 2
|------------------------------------|
|------------------------------------|
|-77--88--1010--88-------------------|
|-77--88--1010--88--555555555555555--| 
|-55--66---8-8--66--555555555555555--|
|-------------------333333333333333--|
 PM.  ..   ...  ..  ...............
  
C                    G
You'll never see the movie in my head                   (these chords are for 
                                                         Guitar 1)
C                 G      C               G 
But you infest my sleep, and your figure creeps

            C               G
Through my walls and hums above my bed 

C           G                     C               G   
I know your name, and that you're photogenic and tall

C                        G  
But I've never heard you talk 


PRECHORUS
[ Tab from: http://www.guitartabs.cc/tabs/l/ludo/hum_along_tab.html ]
Guitar 1 and 2 
|-------------------------------------------------------------------------|
|-------------------------------------------------------------------------|
|-------------------------------------------------------------------------|
|---555555555555555---7777777777777---9999999999999---12121212121212121212|
|---555555555555555---7777777777777---9999999999999---12121212121212121212|
|---333333333333333---5555555555555---7777777777777---10101010101010101010|
                       
      And there's something about you that stabs me right through 


CHORUS

|-----------------------------------------------|
|-----------------------------------------------|
|-----------------------------------------------|
|-33333333333--7777777777777---555555555555555--| 
|-33333333333--7777777777777---555555555555555--|
|-11111111111--5555555555555---333333333333333--|

It isnt riiiiiiiiiiiiiiiiight     For me to paint your picture 
every niiiiiiiiiiiiiiiiiight      But I do
It feels so wrooooong             To sing this song
But maybe, somehow, you'll hear me, and hum along


Repeat INTRO, VERSE, CHORUS  


BRIDGE

Just play the chorus, palm muted for the first few times, then not palm muted  

 
SOLO

|----------------------------------------------|
|-/121212121212/11111111/999999/7777777777-----|
|----------------------------------------------|  x2
|----------------------------------------------| 
|----------------------------------------------|
|----------------------------------------------|

|---------------------------------------------------------------------------|
|-999h12p9h12p999h12p9h12p9999h13p9h13p999h13p9h13p999h15p9h15p999h15p9h15p9|
|---------------------------------------------------------------------------| 
|---------------------------------------------------------------------------| 
|---------------------------------------------------------------------------|
|---------------------------------------------------------------------------|

|---------------------17bbbbbbbbbb-15----------|
|-13-12-9--13-12-9---------------------17------|
|----------------------------------------------|  
|----------------------------------------------| 
|----------------------------------------------|
|----------------------------------------------|


BREAKDOWN

Play chorus, just strumming each chord once and letting it ring... and then play chorus normally



Listen to the song and you'll get it all




~Josh
Comments