Ludacris - Stand Up Chords & Tabs

 

Stand Up Chords & Tabs

Ludacris Chords & Tabs

Version: 1 Type: Bass Tab 0 ratings
1 star 2 stars 3 stars 4 stars 5 stars
comments

Stand Up Bass Tab


                  1------------------------------------------------|
                  2------------------------------------------------|
                  3-----------------------------5--3---------------|
                  4-2h4--4444444--2h4-4444444----------------------|
  
    h=hammer on
    ~=vibrato
[ Tab from: http://www.guitartabs.cc/tabs/l/ludacris/stand_up_btab.html ]
                   just keep repeating that and mainly thats the whole song
                   
                              except the chorus goes like this
 
                 1--------------------------------------------------|
                 2----------------------3-----4---------------------|
                 3----3---4-----------------------------------------|
                 4-------------3----4-------------------------------|
Comments