Lucybell - Mil Caminos Chords & Tabs

 

Mil Caminos Chords & Tabs

Lucybell Chords & Tabs

Version: 1 Type: Tab 0 ratings
1 star 2 stars 3 stars 4 stars 5 stars
comments

Mil Caminos Tab

   
Artist: Lucybell
Song: Mil Caminos
Album: Sesion Futura
User: Coke_666   CHILE

-----------------------------------------------------------------------------
                            LUCYBELL - MIL CAMINOS
-----------------------------------------------------------------------------

G                                      C
Al fin, podré comer, beber de tus latidos 

  G                              C             
Al fin podré reírme con tus risas violéntame, sonríeme


Solo 1:

   parte 1                   parte 2
e|-------------------------|----------------------------------------|
B|-8-7---------------------|--8-7-----------------------------------|
G|-----5-7-4-5-------------|------5-7-4-5---------------------------|
D|-------------4-5-4-5-4-5-|--------------4-5-4-5-4-5-4-5-4-5-4-5-7-|
A|-------------------------|----------------------------------------|
E|-------------------------|----------------------------------------|


    G                                 C 
Al fin creeré que puedes controlar tu paz (Solo parte 1)

              G                               C 
Seguro que al fin creeré, creeré que puedes salvarme (Solo parte 1) 

    D                C          G
sonríe Puedes ser mi alma, sonríeme

en esta parte donde dice "sonríe Puedes ser mi alma, sonríeme" valenzuela 
usa estos acordes pero no toy muy seguro ya k lo vi en un concierto de lucybell pero = es aceptable

   D    C
e|-14-------|
B|-15---15--|
G|-14-------|
D|------14--|
A|------15--|
E|----------|
[ Tab from: http://www.guitartabs.cc/tabs/l/lucybell/mil_caminos_tab.html ]
Solo2:
e|-------------------------|----------------------------------------|
B|-8-7---------------------|--8-7-----------------------------------|
G|-----5-7-4-5-------------|------5-7-4-5---------------------------|
D|-------------4-5-4-5-4-5-|--------------4-5-4-5-4-5-4-5-4-5-4-5-7-|
A|-------------------------|----------------------------------------|
E|-------------------------|----------------------------------------|

e|-----------------7-7-5-5-------------------|-------------------------|
B|---------7-7-5-5---------7-7-5-5-----------|-8-7---------------------|
G|-7-7-5-5-------------------------7-7-5-5-4-|-----5-7-4-5-------------|
D|-------------------------------------------|-------------4-5-4-5-4-5-|
A|-------------------------------------------|-------------------------|
E|-------------------------------------------|-------------------------|


     G                              C 
Al fin creeré que puedes controlar tu paz

               G                                    C 
Seguro que al fin creeré, creeré que puedes salvarme (Solo3-x1)

     D                  C             D
sonríe, puedes ser mi alma seguro que tu
 
               C          G   
puedes ser mi alma calma calma

 
Solo 3:

e|-14-15-15-17-17/19-19-17---14-14-15-15-17-17/19-|
B|------------------------------------------------|
G|------------------------------------------------|     (x2)
D|------------------------------------------------|
A|------------------------------------------------|
E|------------------------------------------------|



D                  C
     Puedes ser mi alma 

            D               C           G       G
seguro que tu puedes ser mi alma calma calma 


Al final de mil caminos 

siempre habrá desvíos 

al final de mil caminos decido, te sigo 
 

Al final de mil caminos 

siempre habrá desvíos 

al final de mil caminos decido, te sigo


G 
Al final de mil caminos siempre habrá desvíos
 
C
al final de mil caminos decido, te sigo
Comments