Lucky Boys - Power Of The Ganja Chords & Tabs

 

Power Of The Ganja Chords & Tabs

Lucky Boys Chords & Tabs

Version: 1 Type: Tab 0 ratings
1 star 2 stars 3 stars 4 stars 5 stars
comments

Power Of The Ganja Tab

   
Song: Power of the Ganja
Artist: Lucky Boys Confusion
Tabbed by: Chris Lotysz

hey, this is an awesome song that I saw LBC do live down here at U of Illinois.
I think these tabs are pretty accurate. If you think they suck, go ahead and 
fix 'em.


/ = A Slide
h = hammer on
~ = let notes ring


Intro Riff - (Kinda Palm Muted) Play 2 Times Alone
E --------------------------------------------------------- 
B --------------------------------------------------------- 
G --------------------------------------------------------- 
D --------------------------------------------------------- 
A ------7-10--------7-10-9--------------------------5~----- 
E --7-7---------7-7-------------5-5-7-7-----5-5-7-7-------- 




Intro Pt 2

Guitar 1 Plays Intro Riff

Guitar 2 Plays this, with a Jamaican/Reggae feel:
These are not exact number of strokes. Adam varies them quite
a bit, so you just gotta play around with it.
     
        E5          B5
E --------------------------------------------------------- 
B --------------------------------------------------------- 
G ---9--9--9--9--4--4--4--4-------------------------------- 
D ---9--9--9--9--4--4--4--4--------------------------------
A ---7--7--7--7--2--2--2--2-------------------------------- 
E --------------------------------------------------------- 

PLay Intro Pt 2 about 4 times, then accent (play harder) the last B5
and play this little fill:

E ------------8-7------------------------------------------ 
B ---------------------------------------------------------
G --------------------------------------------------------- 
D ---------------------------------------------------------
A --------------------------------------------------------- 
E ---------------------------------------------------------  



Verse: Just Play the Intro Riff Over and Over



First Chorus:

Play this with that good ol' Reggae feel again!
Maybe even toss in a mild distortion.
[ Tab from: http://www.guitartabs.cc/tabs/l/lucky_boys/power_of_the_ganja_tab.html ]
E --------------------------------------------------------- 
B --------------------------------------------------------- 
G ---9--9--7--7--4--4-----4-4-4-4-4------------------------ 
D ---9--9--7--7--4--4-----4-4-4-4-4------------------------
A ---7--7--5--5--2--2-----0h2-0h2-2------------------------ 
E --------------------------------------------------------- 

Bridge: Play that killer Intro Pt 2 Riff

Lead up to Second Chorus:
When he is singing "THere is one very talented man, who does not..."
you play:

E --------------------------------------------------------- 
B --------------------------------------------------------- 
G ---5~--4~------9--7--4------5~-4~------------------------ 
D ---9~--9~------7--7--4------5~-4~------------------------
A ---7~--7~------5--5--2------3~-2~------------------------ 
E ---------------------------------------------------------



Second Chorus:
Kick that distortion on and rock!!

E --------------------------------------------------------- 
B --------------------------------------------------------- 
G ---9/7--7-7--4--4-----4-4-4-4-4--4----------------------- 
D ---9/7--7-7--4--4-----4-4-4-4-4--4-----------------------
A ---7/5--5-5--2--2-----0h2-0h2-2--4----------------------- 
E ---------------------------------------------------------




Bridge: Once again, Intro Pt 2 Riff while Adam denies smoking the ganja.




Adam's Part: 

Once he starts singing " well i be rolling up the 1.5", you play with a reggae feel:

E ----7-7-7-7--------7-7-7-7------------------------------- 
B ----8-8-8-8--------7-7-7-7------------------------------- 
G ----9-9-9-9--------8-8-8-8------------------------------- 
D ---------------------------------------------------------
A --------------------------------------------------------- 
E ---------------------------------------------------------



One more hard chorus, then end the song with

E --------------------------------------------------------- 
B ---------------9~----------------------------------------
G ---------------9~---------------------------------------- 
D ---------------7~----------------------------------------
A --------------------------------------------------------- 
E ---------------------------------------------------------  








Comments