Lucky 13 - Untitled Chords & Tabs

 

Untitled Chords & Tabs

Lucky 13 Chords & Tabs

Version: 1 Type: Tab 0 ratings
1 star 2 stars 3 stars 4 stars 5 stars
comments

Untitled Tab

   
Song:Untitled
Artist: Lucky 13(thoughtswithoutwords@hotmail.com)
Tabbed by: Lucky 13
Tuning:Standard(7-string)

     Bsus2(no 5th)    A(no 5th)          Bm(no 5th)
e------------------/---------------------------------------------
b------------------/---------------------------------------------
g------------------/---------------------------------------------
d------------------/---------------------------------------------
a------------------/---------------------------------------------
E------9----9----9-/--------9----9----9--------10-----10----10---
B--0-0----0----0---/*-10-10---10---10----12-12-----12----12------

[ Tab from: http://www.guitartabs.cc/tabs/l/lucky_13/untitled_tab.html ]
e----------------------------------------------------------------
b----------------------------------------------------------------
g----------------------------------------------------------------
d--9-9-9---------9-9-9-------------------------------------------
a--x-x-x---------x-x-x-------------------------------------------
E--7-7-7---------7-7-7-------------------------------------------
B--------0-0-0----------0-0-0---0-3-2-0-0-0---4----1-1-----------

 F#/5-(no 3rd) F/5(no 3rd)
e------------/---------------------------------------------------
b------------/---------------------------------------------------
g-11-11-11-11/-10-10-10-10---------------------------------------
d-10-10-10-10/-9--9--9--9----------------------------------------
a-9--9--9--9-/-8--8--8--8----------------------------------------
E------------/--------------------8h9-9-9 9p8/5-5----------------
B------------/**-------------------------------------------------

   B		     Asus2              C        
Comments