Lucero - Drink Till Were Gone Chords & Tabs

 

Drink Till Were Gone Chords & Tabs

Lucero Chords & Tabs

Version: 1 Type: Tab 0 ratings
1 star 2 stars 3 stars 4 stars 5 stars
comments

Drink Till Were Gone Tab

   
Lucero - Drink Till We're Gone


Main Riff:

E|------------------------------------------------|
B|------------------------------------------------|
G|------------------------------------------------|
D|---2---4-2-0---------2--------------------------|
A|-0---00------4----44---------------0-2----22-4-2|
E|------------------------02----02-4--------------|


Chorus:

    D       F#m         E
E|---2---------2---------0----|
B|---3---------2---------0----|
G|---2---------2---------1----|
D|---0---------4---------2----|
A|---x---------x---------2----|
E|---x---------x---------0----|



	Main Riff x8

Life is short in spite of your plans
So tell the girls they're pretty while you can
Cause one day they're gone, and all ya got left
is some empty bottles and an ol country song
that plays on and on

I've wasted my time with these cigarettes
and these ashes are all I got left
I watch this old town and nothing's left for me
Washed down stream and into the sea


	Chorus
[ Tab from: http://www.guitartabs.cc/tabs/l/lucero/drink_till_were_gone_tab.html ]
                   D                     F#m
Cause this big old river will kill us in time
                           E                        D
Till then we'll drink it's weight in cheep beer and wine
                     F#m                  E
We can drink just as fast as the river is strong

And we'll drink till we're gone


	Main Riff x4

We'll drink till we're gone

Life is short in spite of your plans
So tell the girls they're pretty while you can
Cause one day they're gone, and all ya got left
is some empty bottles and an ol country song


	Chorus

                   D                     F#m
Cause this big old river will kill us in time
                           E                        D
Till then we'll drink it's weight in cheep beer and wine
                     F#m                  E
We can drink just as fast as the river is strong

And we'll drink till we're gone


	Main Riff x 2

We'll drink till we're gone



Any suggestions, comments, or errors, let me know:  020051466@georgianc.on.ca
Comments