Lucerin Blue - Superstar Chords & Tabs

 

Superstar Chords & Tabs

Lucerin Blue Chords & Tabs

Version: 1 Type: Tab 0 ratings
1 star 2 stars 3 stars 4 stars 5 stars
comments

Superstar Tab

----------------------------------------------------------------------------
			     SUPERSTAR - Lucerin Blue
----------------------------------------------------------------------------
So I've been looking for tabs by Lucerin Blue for soo long but no one has ever done one
to my knowledge...so i decided to tab this song. They aren't a huge band, but they're
getting there. It's not like they are super small...they were a signed band to Tooth &
Nail records, but got dropped and are working on a new album with a new label... check
them out at www.lucerinblue.com


Tabbed by: Aaron
Email:aaron_h@rogers.com

Tuning: Dropped D, half step down to Eb

An amazing song, all you have to do is figure out the strumming patterns

Intro
eb|------------------------------------------------------------------------|
Bb|------------------------------------------------------------------------|
Gb|------------------------------------------------------------------------|
Db|0-10-12-0-8-10-0-7-8-0-5-7-0-3-5-5----X3--------------------------------|
Ab|------------------------------------------------------------------------|
Db|------------------------------------------------------------------------|

On the fourth time end it like this
eb|------------------------------------------------------------------------|
Bb|------------------------------------------------------------------------|
Gb|------------------------------------------------------------------------|
Db|0-10-12-0-8-10-0-7-8-0-5-7-8--------------------------------------------|
Ab|---------------------------8--------------------------------------------|
Db|---------------------------8--------------------------------------------|


Chorus
eb|------------------------------------------------------------------------|
Bb|------------------------------------------------------------------------|
Gb|------------------------------------------------------------------------|
Db|0-10-12-0-8-10-0-7-8-0-5-7-0-3-5-5--------------------------------------|
Ab|0-10-12-0-8-10-0-7-8-0-5-7-0-3-5-5-----X4-------------------------------|
Db|0-10-12-0-8-10-0-7-8-0-5-7-0-3-5-5--------------------------------------|

Verse
eb|------------------------------------------------------------------------|
Bb|------------------------------------------------------------------------|
Gb|----7777101077------77775577--------------------------------------------|
Db|8-0-7777101077--8-0-77775577------X4------------------------------------|
Ab|8-0-55558 8 55--8-0-55553355--------------------------------------------|
Db|8-0-------------8-0-----------------------------------------------------|
   I'm gonna seek you like a freight train....
[ Tab from: http://www.guitartabs.cc/tabs/l/lucerin_blue/superstar_tab.html ]
Pre-chorus, this is a tricky sturmming pattern to get down
eb|------------------------------------------------------------------------|
Bb|------------------------------------------------------------------------|
Gb|77777777-55555555-33333333-22222222-------------------------------------|
Db|77777777-55555555-33333333-22222222--X2---------------------------------|
Ab|55555555-33333333-11111111-00000000-------------------------------------|
Db|------------------------------------------------------------------------|
   p.m.....................................................................
                  So comfortable, we sit and watch our lives go to waste

Main Riff- Chorus
eb|------------------------------------------------------------------------|
Bb|------------------------------------------------------------------------|
Gb|------------------------------------------------------------------------|
Db|0-10-12-0-8-10-0-7-8-0-5-7-0-3-5-5---------8-0--------------------------|
Ab|0-10-12-0-8-10-0-7-8-0-5-7-0-3-5-5-----X8--8-0--------------------------|
Db|0-10-12-0-8-10-0-7-8-0-5-7-0-3-5-5---------8-0--------------------------|
   Im not falling awaaaaaaay...

Verse
eb|------------------------------------------------------------------------|
Bb|------------------------------------------------------------------------|
Gb|----7777101077------77775577~-------------------------------------------|
Db|8-0-7777101077--8-0-77775577~------X2-----------------------------------|
Ab|8-0-55558 8 55--8-0-55553355~-------------------------------------------|
Db|8-0-------------8-0-----------------------------------------------------|
   I can't do this anymore, sitting in my lawnchair drinking lemonade

After this part is goes to just the bass line and some crazy scratching stuff with a
whamee pedal that i cant figure out becuse i dont have a whamee pedal. It comes like
this though...

eb|------------------------------------------------------------------------|
Bb|------------------------------------------------------------------------|
Gb|------------------------------------------------------------------------|
Db|8-7-3-0-8-7-3-0-x-x-8-7-3-0-8-7-3-0-10----------------------------------|
Ab|8-7-3-0-8-7-3-0-x-x-8-7-3-0-8-7-3-0-10------x2--------------------------|
Db|8-7-3-0-8-7-3-0-x-x-8-7-3-0-8-7-3-0-10----------------------------------|

eb|------------------------------------------------------------------------|
Bb|------------------------------------------------------------------------|
Gb|------------------------------------------------------------------------|
Db|88888888-00000000-88888888-00007778-00007778-00007778-00007778-0~-------|
Ab|88888888-00000000-88888888-00007778-00007778-00007778-00007778-0~-------|
Db|88888888-00000000-88888888-00007778-00007778-00007778-00007778-0~-------|
   I can't do this any mooorrreee....

Chorus
eb|------------------------------------------------------------------------|
Bb|------------------------------------------------------------------------|
Gb|------------------------------------------------------------------------|
Db|0-10-12-0-8-10-0-7-8-0-5-7-0-3-5-5---------8-0--------------------------|
Ab|0-10-12-0-8-10-0-7-8-0-5-7-0-3-5-5-----X8--8-0--------------------------|
Db|0-10-12-0-8-10-0-7-8-0-5-7-0-3-5-5---------8-0--------------------------|
   Im not falling awaaaaaaay...
Comments