Luca Turilli - Black Dragon Chords & Tabs

 

Black Dragon Chords & Tabs

Luca Turilli Chords & Tabs

Version: 1 Type: Tab 0 ratings
1 star 2 stars 3 stars 4 stars 5 stars
comments

Black Dragon Tab

   
***************************************************************
* LUCA TURILLI - BLACK DRAGON (From: King Of Nordic Twilight) *
***************************************************************
 Music and Words By: Luca Turilli

Transcribed By: Niclas Buss
email: Nbjbuss@hotmail.com

Please mail me if you can find mistakes!

Normal Tuning

  Intro (Gtrs. 1&2)
E----------------------------------------------------------------------------------|
B---------------------------------------------------------------------------Gtr.2:-|
G*---------------------------------------------------------------------------------|
D*-8p0-0-0-7p0-0-0-5p0-0-0-3p0-0-2p0-0-0-0--/8p0-0-0-7p0-0-0-5p0-0-0-3p0-0-2p0-0-0-|
A----------------------------------------------------------------------------------|
E----------------------------------------------------------------------------------|
  pm..............................................................................|

E-----*--*-*-*---------------------------------------------------------------------|
B---*-5-/8-6-5---------------------------------------------------------------------|
G-*-6------------------------------------------------------------------------------|
D-7---2-/5-3-2---/8p0-0-0-7p0-0-0-5p0-0-0-3p0-0-2p0-0-0-0--/8p0-0-0-7p0-0-0-5p0-0-0|
A---4------------------------------------------------------------------------------|
E-5--------------------------------------------------------------------------------|
  *=A.H.	pm.................................................................

				  x3			     Intro (Gtr.3)
E--------------------*--*------*------------*--*------*---|------------------------|
B--------Gtr.2:----*-6--5b(6)-r5-----|----*-6--5b(6)-r5---|------------------------|
G----------------*-7----------------*|--*-7---------------|------------------------|
D-3p0-0-2p0-0-0--8---3--3-----\2----*|--8---3--3-----\2---|--7\------7\---------2-/|
A------------------5-----------------|----5---------------|--5\------5\-------4----|
E----------------6----------------------6-----------------|-----------------5------|
 ..............|
					Riff 1
E----------------------------------------------------------------------------------|
B-------------------------------------|--------------------------------------------|
G-------------------------------------|*-------------------------------------------|
D5-3-2----7\------7\--------3--3-\2---|*--7----------------------------------------|
A---------5\------5\------5-----------|---5-5-5-5-5-5-5-5-5-5-5-5-5-5-5-5-5-5-5-5-5|
E-----------------------6----------------------------------------------------------|
					   pm......................................

E----------------------------------------------------------------------------------|
B----------------------------------------------------------------------------------|
G----------------------------------------------------------------------------------|
D------------------------2-/5-3-2---7----------------------------------------------|
A-5-5-5-5-5-5-5-5-5----4------------5-5-5-5-5-5-5-5-5-5-5-5-5-5-5-5-5-5-5-5-5-5-5-5|
E--------------------5-------------------------------------------------------------|
 ..................|		     pm............................................

		 x2	 end Intro    Verse 1
E-------(end-Riff-1)---------------||----------------------------------------------|
B-------------------|--------------||----------------------------------------------|
G------------------*|--------------||*---------------------------------------------|
D---------3--3-\2--*|------3--3\2--||*---------------------------------------------|
A5-5----5-----------|----5---------||---5-5-5-5-5-5-5-/-7-7-7-7-7-7-7-\-4-4-4-4-4-4|
E-----6----------------6-----------||----------------------------------------------|
 ...|				       pm..........................................

E----------------------------------------------------------------------------------|
B----------------------------------------------------------------------------------|
G----------------------------------------------------------------------------------|
D----------------------------------------------------8p0-0-0-7p0-0-0-5p0-0-0-3p0-0-|
A-4-/-5-5-5-5-5-5-5-----------------/-4-4-4-4-4-4-4--------------------------------|
E-------------------\-6-6-6-6-6-6-6------------------------------------------------|
 ..................................................................................

						x4   Bridge (2 Gtrs.)
E----------------------------------------------------------------------------------|
B--------------------------------------------------|-------------------------------|
G-------------------------------------------------*|------------------5~~----------|
D2p-0-0-0--8p0-0-0-7p0-0-0-5p0-0-0-3p0-0-2p0-0-0--*|---------3-7---5--------------2|
A--------------------------------------------------|--5--5h7-------3-------3--3h5--|
E-----------------------------------------------------3--------------------1-------|
 ...............................................|

E---------1------------------------------------------------------------------2-gtrs|
B-----3~--3~-------------------------|---------------|-----------|----------|------|
G-/5---------------------------------|---------------|--Verse-2--|--Bridge--|------|
D-----3---3----8-------7--9--7---5~--|--5-5-5-5-5-5--|-----------|----------|--2p0h|
A-----1---1----6---7---5--7--5---3~--|--3-3-3-3-3-3--|-----------|----------|--3p2h|
E------------------5---------------------------------------------------------------|

		  Chorus
E----------------------------------------------------------------------------------|
B---------------|------------------------------------------------------------------|
G-----0-----0---|------------------------------------------------------------------|
D-2h3-2-2h3-2---|------------------------------------------------------------------|
A-3h5---3h5-----|--3--------------------------------------/7-----------------------|
E------------------1-1-1-1-1-1-1-1-1-1-1-1-1-1-1-1-1-1-1--/5-5-5-5-5-5-5-5-5-5-5-5-|
		    pm..................................|   pm.....................

								          w/Fill 1
E----------------------------------------------------------------------------------|
B----------------------------------------------------------------------------------|
G----------------------------------------------------------------------------------|
D------------------/7--------------------------------------------------------------|
A------------------/5-5-5-5-5-5-5-5-5-5-5-5-5-5-5-5-5-5-5--8-----------------------|
E-5-5-5-5-5-5-5-5------------------------------------------6-6-6-6-6-6-6-6-6-6-6-6-|
 ................|   pm..................................|  pm....................|

E----------------------------------------------------------------------------------|
B----------------------------------------------------------------------------------|
G----------------------------------------------------------------------------------|
D------------------------------------------------------5---------------------------|
A----------------\5------------------------------------3-3-3-3-3-3-3-3-3-3-3-3-3-3-|
E-6-6-6-6-6-6-6--\3-3-3-3-3-3-3-3-3-3-3-3-3-3-3-3-3-3------------------------------|
 ..............|   pm................................|  pm.........................

E----------------------------------------------------------------------------------|
B----------------------------------------------------------------------------------|
G----------------------------------------------------------------------------------|
D----------------------------------------------------------------------------------|
A-3-3-3-3-3--\3--------------------------------------/7----------------------------|
E------------\1-1-1-1-1-1-1-1-1-1-1-1-1-1-1-1-1-1-1--/5-5-5-5-5-5-5-5-5-5-5-5-5-5-5|
 ..........|   pm..................................|   pm..........................

E----------------------------------------------------------------------------------|
B----------------------------------------------------------------------------------|
G----------------------------------------------------------------------------------|
D----------------------------------------------------------------------------------|
A----------\3--------------------------------------/7------------------------------|
E-5-5-5-5--\1-1-1-1-1-1-1-1-1-1-1-1-1-1-1-1-1-1-1--/5-5-5-5-5-5-5-5-5-5-5-5-5-5-5-5|
 ........|   pm..................................|   pm............................

E----------------------------------------------------------------------------------|
B----------------------------------------------------------------------------------|
G----------------------------------------------------------------------------------|
D------------------------------------------7--------------------------------------\|
A----/8------------------------------------5-5-5-5-5-5-5-5-5-5-5-5-5-5-5-5-5-5-5--\|
E-5--/6-6-6-6-6-6-6-6-6-6-6-6-6-6-6-6-6-6------------------------------------------|
 ..|   pm................................|  pm..................................|

				    Gtrs.1&2 w/Riff 1
E----------------------------------------------------------------------------------|
B--------------------------------|-------------------------------------------------|
G--------------------------------|*------------------------------------------------|
D\5--5--5-5--5--5--5\---2--3--5--|*--8p0-0-0-7p0-0-0-5p0-0-0-3p0-0-2p0-0-0--/8p0-0-|
A\3--3--3-3--3--3--3\---3--5--7--|-------------------------------------------------|
E----------------------------------------------------------------------------------|
				    pm.............................................
[ Tab from: http://www.guitartabs.cc/tabs/l/luca_turilli/black_dragon_tab.html ]
E--------------------------------------*--*-*-*------------------------------------|
B------------------------------------*-5-/8-6-5------------------------------------|
G----------------------------------*-6---------------------------------------------|
D-0-7p0-0-0-5p0-0-0-3p0-0-2p0-0-0--7---2-/5-3-2---8p0-0-0-7p0-0-0-5p0-0-0-3p0-0-2p0|
A------------------------------------4---------------------------------------------|
E----------------------------------5-----------------------------------------------|
 ................................|	         pm................................

							     x2
E--------------------------------------------------*-------------------*-----------|
B------------------------------------------------*-6--5b(6)-r5--|----*-6--5b(6)-r5-|
G----------------------------------------------*-7-------------*|--*-7-------------|
D-0-0--/8p0-0-0-7p0-0-0-5p0-0-0-3p0-0-2p0-0-0--8---3--3----\2--*|--8---3--3-----\2-|
A------------------------------------------------5--------------|----5-------------|
E----------------------------------------------6-------------------6---------------|
 ............................................|

  Guitar Solo
E----------------------------------------------------------------------------------|
B-----------------------11----------------------------------15p11-10----11p10------|
G--------------10-12-14----14-12-10----------------10-12-14----------12-------12p10|
D--12-11-12-14----------------------14-12-11-12-14---------------------------------|
A----------------------------------------------------------------------------------|
E----------------------------------------------------------------------------------|

			       Guitar Solo 2
E----------------------------------------------------------------------------------|
B----10~-----|---------------|-----------------------11----------------------------|
Gp9------9~--|--Violin-Solo--|--------------10-12-14----14-12-10----------------10-|
D------------|---------------|--12-11-12-14----------------------14-12-11-12-14----|
A------------|---------------|-----------------------------------------------------|
E----------------------------------------------------------------------------------|

							Guitar Solo 3
E----------------------------------------------------------------------------------|
B-------15p11-10----11p10-----------|-----------------|-----------------------14---|
G-12-14----------12-------12p10p9---|--Violin-Solo-2--|--------------13-15-17----17|
D-----------------------------------|-----------------|--15-14-15-17---------------|
A-----------------------------------|-----------------|----------------------------|
E----------------------------------------------------------------------------------|

E----------------------------------------------------------------------------------|
B-------------------------------18p14-13----14p13-----------13~------|-------------|
G-15-13----------------13-15-17----------15-------15p13p12------12~--|-Violin-Solo-|
D-------17-15-14-15-17-----------------------------------------------|------3------|
A--------------------------------------------------------------------|-------------|
E----------------------------------------------------------------------------------|
 
  Guitar Solo 4
E----------------------------------------------------------------------------------|
B-----------------------14----------------------------------18p14-13----14p13------|
G--------------13-15-17----17-15-13----------------13-15-17----------15-------15p13|
D--15-14-15-17----------------------17-15-14-15-17---------------------------------|
A----------------------------------------------------------------------------------|
E----------------------------------------------------------------------------------|

E----------------------------------------------------------------------------------|
B-----13~------|-----------------|-------------------------------------------------|
Gp12------12~--|--Violin-Solo-4--|-------------------------------------------------|
D--------------|-----------------|-------------------------------------------------|
A--------------|-----------------|--4-4-4-4-4-4-4-4-4-4-4-4-4-4-4-4----------------|
E-------------------------------------------------------------------\1-1-1-1-1-1-1-|
				   pm..............................................

E----------------------------------------------------------------------------------|
B----------------------------------------------------------------------------------|
G----------------------------------------------------------------------------------|
D----------------------------------------------------------------------------------|
A----------------------------------------------------/3-3-3-3-3-3-3-3-3-3-3-3-3-3-3|
E-1-1-1-1-1-1-1-1-1--3-3-3-3-3-3-3-3-3-3-3-3-3-3-3-3-------------------------------|
 ..................................................................................

E----------------------------------------------------------------------------------|
B----------------------------------------------------------------------------------|
G----------------------------------------------------------------------------------|
D----------------------------------------------------------------------------------|
A-3---------------------------------------------------------------/8-8-8-8-8-8-8-8-|
E----\6-6-6-6-6-6-6-6-6-6-6-6-6-6-6-6-6-6-6-6-6-6-6-6-6-6-6-6-6-6------------------|
 ..................................................................................

E----------------------------------------------------------------------------------|
B----------------------------------------------------------------------------------|
G----------------------------------------------------------------------------------|
D----------------------------------------------------------------------------------|
A-8-8-8-8-8-8-8-8-8-8-8-8-8-8-8-8-8-8-8-8-8-8-8-8----------------------------------|
E--------------------------------------------------\8-8-8-8-8-8-8-8-8-8-8-8-8-8-8-8|
 ..................................................................|

				     x2
E----------------------------------------------------------------------------------|
B----|----------------------------------|------------------------------------------|
G----|*--------------------------------*|------------------------------------------|
D----|*--------------------------------*|-------8---10---12---7-7-7-7--------------|
A----|---3-----6---6----3----6---6--6---|--x\---6----8---10---5-5-5-5---8---\3---5-|
E-\------1-----3---3----1----3---3--3------x\---------------------------6---\1---3-|

  w/Fill 2
E----------------------------------------------------------------------------------|
B------------------------------------------------------------------------------|---|
G-------------------------------------------------------3-3-3-3-3-3-3----------|--C|
D------------------8---10---12---7-7-7-7----------------5-5-5-5-5-5-5---6---6--|---|
A------------------6----8---10---5-5-5-5---8---\3---5-------------------4---4--|---|
E--3-3-3-3-3-3-3---------------------------6---\1---3------------------------------|
  pm............|

E---------------||
B-------|-------||
Ghorus--|-------|| end
D-------|--3\---||
A-------|--5\---||
E---------------||

--------------------------------------------------------------------------------------

  Fill 1 (2 gtrs.)	  Fill 2
E--------------------------/15-13-------------------------||
B-----------------------|----------13b(15)--r13~-p10------||
G---3-3--/7--5--3--\2---|----------------------------12---|| end
D---5-5--/8--7--5--\3---|---------------------------------||
A-----------------------|---------------------------------||
E---------------------------------------------------------||

  Rhythm Guitar During Solos		    x2
E-----------------------------------------------------------------------------------|
B----------------------------------------------|------------------------------------|
G*--------------------------------------------*|*-----------------------------------|
D*--------------------------------------------*|*-----------------------------------|
A---5----5----4---------5----5----4---4-5--5---|----8----8----7---------8----8----7-|
E-----5----5----6-5-5-----5----5----5-----------------8----8----9-8-8-----8----8----|

	    x2
E------------||
B------------||
G-----------*|| end
D-----------*||
A---7-8--8---||
E-8----------||

--------------------------------------------------------------------------------------

=======================
=TABLATURE EXPLANATION=
=======================

A.H. = Artificial Harmonic

pm..| = Palm mute

h = hammer on

p = pull off

/ = slide up

\ = slide down

~ = Vibrato

b() = Bend

x\ = Pick Slide

|     |
|     |
|*   *| = repeat from * to *
|*   *| 
|     |

LYRICS:
******************************************************************

Son of twilight lord of shadows caress of the moonlight
Chasing wisdom over darkness he soon found his way
He beheld the tyrant father hated lord of Kalgor
Close to death he left his castle running through the marsh

He swore to the clouds he'd be born again
To live a new life fighting his name

Over mountains hills and valleys he could reach his heaven
The dark land known as Thalaria real enchant of north
There he found the dusty village in that night of no stars
Had to fight the reputation of his bloody past

But she decided to give her help
And soon their wise love made this their land

BLACK DRAGON FLY HIGH REGAIN YOUR PAST
LOST IN THE FIRE, THE FIRE OF HATE
BLACK DARGON FLY HIGH SPIT YOUR RED FLAME
THEY'RE LOST IN THE FIRE OF DAMNED
THE FIRE OF HATE

"His day will soon come ... your reign will fall ...
Lost in the sun you'll burn ...
Burn to pay for what you've done to us all!

Black dragon's pride
INTER FULMINA ET IN TENEBRIS
Comes from the past
MIHI HORROR MEMBRA PERCRIPIT
Black dragon's pride
INTER FULMINA ET IN TENEBRIS
Comes from the past
MIHI HORROR MEMBRA PERCRIPIT

Rides to reach for the winter sun
Bringing death where he met life
Demons ride to reach the far winter sun
Bringing death where he met life
And right here holy blood will flow ...

BLACK DRAGON FLY HIGH REGAIN YOUR PAST
LOST IN THE FIRE, THE FIRE OF HATE
BLACK DARGON FLY HIGH SPIT YOUR RED FLAME
THEY'RE LOST IN THE FIRE OF DAMNED
THE FIRE OF HATE

*****************************************************************
Comments