Lowry Robert - Nothing But The Blood Chords & Tabs

 

Nothing But The Blood Chords & Tabs

Lowry Robert Chords & Tabs

Version: 1 Type: Tab 0 ratings
1 star 2 stars 3 stars 4 stars 5 stars
comments

Nothing But The Blood Tab

   
Nothing But the Blood

By Robert Lowry 1876


Verse 
e-----------------------------------------------------------------------------
B--------------------------0----3----0-----------------------0---0------------
G--------0---0---0---2------------------0—0-----0---2-------------2-----0-----
D-----------------------------------------------------------------------------
A-----------------------------------------------------------------------------
E-----------------------------------------------------------------------------

e-----------------------------------------------------------------------------
B--------------------------0----3----0-----------------------0---0------------
G--------0---0---0---2------------------0—0-----0---2-------------2-----0-----
D-----------------------------------------------------------------------------
A-----------------------------------------------------------------------------
E-----------------------------------------------------------------------------
Chorus
e
B-----3----0--------0----3----0-----------------------------0h3---------------
G--------------2---------------------2----2---0---2----2----------------------
D-----------------------------------------------------------------------------
A-----------------------------------------------------------------------------
E-----------------------------------------------------------------------------
[ Tab from: http://www.guitartabs.cc/tabs/l/lowry_robert/nothing_but_the_blood_tab.html ]
e-----------------------------------------------------------------------------
B-----3----0--------0----3----0----------------------0---0--------------------
G--------------2---------------------0—0---0—2------------2—0-----------------
D-----------------------------------------------------------------------------
A-----------------------------------------------------------------------------
E-----------------------------------------------------------------------------

Lyrics
What can wash away my sin?  Nothing but the blood of Jesus;
What can make me whole again?  Nothing but the blood of Jesus.
Chorus:
Oh! precious is the flow that makes me white as snow; 
No other fount I know, nothing but the blood of Jesus.
For my pardon, this I see, nothing but the blood of Jesus;
For my cleansing this my plea, nothing but the blood of Jesus.
Chorus
Nothing can for sin atone, nothing but the blood of Jesus;
Naught of good that I have done, nothing but the blood of Jesus.
Chorus
This is all my hope and peace, nothing but the blood of Jesus;
This is all my righteousness, nothing but the blood of Jesus.
Chorus
Now by this I’ll overcome—nothing but the blood of Jesus,
Now by this I’ll reach my home—nothing but the blood of Jesus.
Chorus
Glory! Glory! This I sing—nothing but the blood of Jesus,
All my praise for this I bring—nothing but the blood of Jesus.
Chorus
Tabbed by JSD42   jsd42@msstate.edu
Please email anytime
Comments