Lowest Of The Low - Rosey And Grey Chords & Tabs

 

Rosey And Grey Chords & Tabs

Lowest Of The Low Chords & Tabs

Version: 1 Type: Tab 0 ratings
1 star 2 stars 3 stars 4 stars 5 stars
comments

Rosey And Grey Tab

   
-------------------------------------------------------------------------------
		    The Lowest Of The Low - Rosy And Grey(intro)
-------------------------------------------------------------------------------
Tabbed by: Rod Schubert
Email: rod_schubert@hotmail.com

Tuning:e B G D A e (standard)

e|-------------------------------------------------------------------------|
B|8--------------------------------8-------------------------8---------8-8-|
G|--9p7-7--5-4--4-2-0-2h4-4-4-2-0----9p7-7-5-4-2-0-------------9p7-7-9-----|
D|--------------------------------------------------4h5-4-2----------------|
A|-------------------------------------------------------------------------|
E|-------------------------------------------------------------------------|

e|------------8-7-10-8-7-8-7-------------8-7----8-7------------7-8-8-7-----|
B|10p8--8-10----------------8-8h10-8-10-----10-----10-8--8-10---------10-8-|
G|-------------------------------------------------------------------------|
D|-------------------------------------------------------------------------|
A|-------------------------------------------------------------------------|
E|-------------------------------------------------------------------------|

e|------7-8-10-8-7-7-------------------------------------------------------|
B|-8-10--------------------------------------------------------------------|
G|-------------------------------------------------------------------------|
D|-------------------------------------------------------------------------|
A|-------------------------------------------------------------------------
E|-------------------------------------------------------------------------|
[ Tab from: http://www.guitartabs.cc/tabs/l/lowest_of_the_low/rosey_and_grey_tab.html ]
G       C                     D
I want to take a street car downtown 
G           C                  D
Read Henry Miller and wander around
G              C               D
And drink some Guinness from a tin 
G        C                      D
'Cause my UI check has just come in

Ah where have you been because

         C         D             G        Em
CHORUS: Everything is coming up rosy and grey
            C           D                      G        Em
        The wind is cold but the smell of snow warms me today
        C                      D                       G               Em
        And your smile is fine and it's just like mine and it won't go away
                C              D        G
        'Cause everything is rosy and grey



CHORUS

Bm             Em                  Am                 C 
Well I've been told that there's a sucker born every day
Am             D        Am        D   
Well I wonder who, yes I wonder who
Bm                      Em                Am                  C
Maybe the one who doesn't realize there's a thousand shades of grey
Am                   D               Am              D
Cause I know that's true, yes I do, I know that's true yeah
  Am            D
I know that's true, how 'bout you?



| /  slide up
| \  slide down
| h  hammer-on
| p  pull-off
| ~  vibrato
| +  harmonic
| x  Mute note
============================================================================
Comments