Lower Class Brats - Ultra Violence Chords & Tabs

 

Ultra Violence Chords & Tabs

Lower Class Brats Chords & Tabs

Version: 1 Type: Bass Tab 0 ratings
1 star 2 stars 3 stars 4 stars 5 stars
comments

Ultra Violence Bass Tab

                           lower class brats
                           "ultra violence"
[ Tab from: http://www.guitartabs.cc/tabs/l/lower_class_brats/ultra_violence_btab.html ]
Verse: (2x)
G: ----------------------------------------------------------------
D: ----------------------------------------------------------------
A: -------------------------6-5-4-3------------------------3-2-3-4-
E: -5-555-555-555-555-555-55-------3-333-333-333-333-333-33--------

Chorus: (4x)
G: ------------------------------------
D: ------------------------------------
A: -5-5-55-----------------------------
E: -------33-3-3-1-1-1-1-1/5-5-5-5-----
Comments