Lower Class Brats - Do It Agin Chords & Tabs

 

Do It Agin Chords & Tabs

Lower Class Brats Chords & Tabs

Version: 1 Type: Bass Tab 0 ratings
1 star 2 stars 3 stars 4 stars 5 stars
comments

Do It Agin Bass Tab

---------------------------------------------------------------------------- 
Do It Again - Lower Class Brats
----------------------------------------------------------------------------

Tabbed by: Bryan Kunde (Kunders@new.rr.com)

Intro/Chorus:
G|-------------------------------|
D|-----------6-7-9---------------|
A|---4-5-7-7--------2-3-5-55-----|
E|-5--------------3----------555-|
[ Tab from: http://www.guitartabs.cc/tabs/l/lower_class_brats/do_it_agin_btab.html ]
Verse:
G|-------------------------------------------------------|
D|-------------------------------------------------------|
A|-45454545-------------------45454545----------77777777-|
E|----------55555555-33333333----------55555555----------|

Break:
G|--------------------|
D|--------------------|
A|-----777-----55-----|
E|-555-----333----555-|

Order:
Guitar Only
Intro X2
Verse X2
Chorus X2
Verse X2
Chorus X2
Break X2
Verse X4
End On E|-5-|
Comments