Low Light - Save The Kids Chords & Tabs

 

Save The Kids Chords & Tabs

Low Light Chords & Tabs

Version: 2 Type: Bass Tab 0 ratings
1 star 2 stars 3 stars 4 stars 5 stars
comments

Save The Kids Bass Tab

Artist: LOW LIGHT
Song:   "Save The Kids"
         music + lyrics by Martin Schönegger


Intro: Lead Guitar only

(Main Riff:)
G|--------------------|
D|--------------------|
A|---------------5----|
E|---5---0---2--------|
[ Tab from: http://www.guitartabs.cc/tabs/l/low_light/save_the_kids_btab_ver_2.html ]
Verse = Chorus
G|----------------------------------------------|
D|----------------------------------------------|
A|-----------------------------5--3-5--3-5--3---|
E|---20/5--5-5---0--0-0--1-2-2------------------|
  slide from the 20th fret just when
  the bassline starts

Do variations like this:
G|--------------------------7-7-----|
D|----------------------------------|
A|---------------------5-5-----3----|
E|---5---5-0---0-2---2--------------|

or this:
G|--------------------------------------|
D|----------------------------------12--|
A|--------------------------------------|
E|---5-5---5-3-0-0--0-1-2-2--/10~-------|

During solo play Main Riff


/ = slide up
\ = slide down
~ = vibrato
Comments