Loverboy - Workin For The Weekend Chords & Tabs

 

Workin For The Weekend Chords & Tabs

Loverboy Chords & Tabs

Version: 1 Type: Tab 0 ratings
1 star 2 stars 3 stars 4 stars 5 stars
comments

Workin For The Weekend Tab

   
'Working for the Weekend' by Loverboy

This is my take on the song it's arranged for one guitar.

Tabbed by Allen Dickson.

  p.m    p.m   p.m   p.m..........
e----------------------------------)
B----------------------------------)
G-----11----10----9----------------)
D-----------------9----------------)  REPEAT 3x
A-----9-----8-----9--------0-------)
E--7-----7-----7--7--0-1-2---2-1-0-)

   B(m)                           G
e-------------------------------------------------------------
B-------------------------------------------------------------
G--4---4-4-4-4-4--4---4-4-4-4-4-------------------------------
D--4---4-4-4-4-4--4---4-4-4-4-4---5---5-5-5-5-5--5---5-5-5-5-5
A--2---2-2-2-2-2--2---2-2-2-2-2---5---5-5-5-5-5--5---5-5-5-5-5
E---------------------------------3---3-3-3-3-3--3---3-3-3-3-3
palm mute 
[ Tab from: http://www.guitartabs.cc/tabs/l/loverboy/workin_for_the_weekend_tab.html ]
2nd time it's B(m) then:
   G#m                  E
e-------------------------------------
B-----------4-----------------0-------
G-------------4-----------------1-----
D---------6-----6-----------2-----2---
A--6----6---------6--2----2-----------
E--4--4--------------0--0-------------

CHORUS is just D and G major with this on the G:
                  D
e--------------------
B-----------------7--
G-----------------7--
D-----------------7--
A-----------0--x--5--
E--3--2--3-----x--5--

Then After the Chorus, It's:
   G
e------------------------------------
B------------------------------------
G--------------------12--11-9--7-9-11
D--5--555-555-555-5------------------
A--5--555-555-555-5--10--9--7--5-7-9-
E--3--333-333-333-3------------------

That's About It. Listen to the song to put the parts together. There's
some cool little riffs in there. This is my first tab so e-mail me with 
any comments or corrections at chabz@angelfire.com. Later.
Comments