Love Courtney - Mono Chords & Tabs

 

Mono Chords & Tabs

Love Courtney Chords & Tabs

Version: 1 Type: Tab 0 ratings
1 star 2 stars 3 stars 4 stars 5 stars
comments

Mono Tab

   
Mono
Courtney Love

Intro/Main riff

G:-9--9-------------------12--12--12-12-12-12
D:-9--9---9--9---12--12---12--12--12-12-12-12
A:-7--7---9--9---12--12---10--10--10-10-10-10
E:--------7--7---10--10----------------------

Variation

G:-9--9----------7--7----------------
D:-9--9---9--9---7--7---5--5--5-5-5-5
A:-7--7---9--9---5--5---5--5--5-5-5-5
E:--------7--7----------3--3--3-3-3-3

Pre Chorus "Well they say that rock is dead..."

e:--------------------------------------------------------
B:-5--5--5-5-5-5--5-5-5--5-5-5/7--7--7-7-7-7--7-7-7--7-7-7
G:-5--5--5-5-5-5--5-5-5--5-5-5/7--7--7-7-7-7--7-7-7--7-7-7
D:-5--5--5-5-5-5--5-5-5--5-5-5/7--7--7-7-7-7--7-7-7--7-7-7
A:-3--3--3-3-3-3--3-3-3--3-3-3/5--5--5-5-5-5--5-5-5--5-5-5
E:-------------------------------------------------------- 

Pre Chorus (Lead)

Let notes ring out
e:------------0~~~~~~~~~~~~~~~~~~~~~~~~~~~0~~~~~~~~~~~~~~~~
B:---------------------------------------------------------
G:---------------------------------------------------------
D:-------5~~~~~~~~~~~~~~~~~~~~~~~~~~~7~~~~~~~~~~~~~~~~~~~~~
A:-3~~~~~~~~~~~~~~~~~~~~~~~~~~~5~~~~~~~~~~~~~~~~~~~~~~~~~~~
E:---------------------------------------------------------

Chorus

e:--------------------------------------------------------
B:-------------2--2-2-2--2-2-2-5--5--5-5-5-7--7-7-7--7-7-7
G:-1--1--1-1-1-2--2-2-2--2-2-2-5--5--5-5-5-7--7-7-7--7-7-7
D:-2--2--2-2-2-2--2-2-2--2-2-2-5--5--5-5-5-7--7-7-7--7-7-7
A:-2--2--2-2-2-0--0-0-0--0-0-0-3--3--3-3-3-5--5-5-5--5-5-5
E:-0--0--0-0-0--------------------------------------------

Chorus (Last repeat)
                              Palm Mute*************************
e:--------------------------------------------------------------
B:-------------2--2-2-2--2-2-2----------------------------------
G:-1--1--1-1-1-2--2-2-2--2-2-2----------------------------------
D:-2--2--2-2-2-2--2-2-2--2-2-2-555555555555555557777777777777777
A:-2--2--2-2-2-0--0-0-0--0-0-0-333333333333333335555555555555555
E:-0--0--0-0-0--------------------------------------------------

Break
[ Tab from: http://www.guitartabs.cc/tabs/l/love_courtney/mono_tab.html ]
e:----------------------------------------------------
B:----------------------------------------------------
G:-4--4--------4--4----------------7--7--7--7--7-7-7-7
D:-4--4--2--2--4--4--5--5--5-5-5-5-7--7--7--7--7-7-7-7
A:-2--2--2--2--2--2--5--5--5-5-5-5-5--5--5--5--5-5-5-5
E:-------0--0--------3--3--3-3-3-3--------------------

Break (Lead)

Let Notes Ring Out
e:-7~~~~~0~~~~~7~~~~~------7~~~~~~~10~~~~~~~~~~~~~~~~~
B:-------------------8~~~~~~~~~8~~~~~~~~~~~~~~~~~~~~~~
G:----------------------------------------------------
                                       
e:-7~~~~~0~~~~~7~~~~~------7~~~~~~~-------------------
B:-------------------8~~~~~~~~~8~~~~~~~~~~~~~~~~~~~~~~
G:---------------------------------7~~~~~~~~~~~~~~~~~~



Break (Last Repeat)                Palm Mute******
e:----------------------------------------------------
B:----------------------------------------------------
G:-4--4--------4--4-----------------------------------
D:-4--4--2--2--4--4--5--5--5-5-5-5-7777777777777777---
A:-2--2--2--2--2--2--5--5--5-5-5-5-5555555555555555---
E:-------0--0--------3--3--3-3-3-3--------------------



Outro
                               Palm Mute************************
e:--------------------------------------------------------------
B:-------------2--2-2-2--2-2-2----------------------------------
G:-1--1--1-1-1-2--2-2-2--2-2-2----------------------------------
D:-2--2--2-2-2-2--2-2-2--2-2-2-555555555555555557777777777777777
A:-2--2--2-2-2-0--0-0-0--0-0-0-333333333333333335555555555555555
E:-0--0--0-0-0--------------------------------------------------

   Palm Mute*************************************** Let Ring Out
e:--------------------------------------------------------------
B:-----------------(11's not 1's)-------------------------------
G:--------------------------------------------------------------
D:-999999999999999911111111111111111111111111111111-2~~~~~~~~~~~
A:-77777777777777779 9 9 9 9 9 9 9 9 9 9 9 9 9 9 9 -2~~~~~~~~~~~
E:--------------------------------------------------0~~~~~~~~~~~



Structure

Intro                 x4 (add some feedback)
Main Riff/Variation   x8
Pre Chorus            x2
Chorus                x1
Chorus (Last Repeat)  x1
Main Riff/Variation   x8
Pre Chorus            x2
Chorus                x3
Chorus (Last Repeat)  x1
Break                 x4
Break   (Last Repeat) x1
Intro                 x1
Chorus                x3
Outro                 x1

I'm pretty sure it's all right apart from the break lead...not too sure on that.
Comments