Love - 7 And 7 Is Chords & Tabs

 

7 And 7 Is Chords & Tabs

Love Chords & Tabs

Version: 1 Type: Tab 0 ratings
1 star 2 stars 3 stars 4 stars 5 stars
comments

7 And 7 Is Tab

   
#----------------------------------PLEASE NOTE--------------------------------#
#This file is the author's own work and represents their interpretation of the#
#song. You may only use this file for private study, scholarship, or research.#
#-----------------------------------------------------------------------------#

From: Andrew Rogers 
Date: Tue, 12 May 1998 14:53:46 -0400
Subject: l/love/seven_and_seven_is.tab

                              "
 Is" (correction)
                              (Arthur Lee)

["7 And 7 Is" on the 45; "Seven & Seven Is" on the LP.]

Intro:

[The bass sounds like it is played in octaves in real time, not
 overdubbed.]

bass (slide between roots of chords) w/heavily-tremoloed guitar:
[ Tab from: http://www.guitartabs.cc/tabs/l/love/7_and_7_is_tab.html ]
     Am                C       G
     v   v   v   v     v   v   v   v
---|-----------------|-----------------
(5)|/7---------------|/10-----/17------
---|-----------------|-----------------
(3)|/5---------------|/8------/15------

     D                 F       C
     v   v   v   v     v   v   v   v
    -----------------|-----------------
    \12--------------|/15------\10-----
    -----------------|-----------------
    \10--------------|/13------\8------

     Em
     v   v   v   v     v   v   v   v
    -----------------|-----------------
    /14--------------|/14------14------
    -----------------|-----------------
    /12--------------|/12------12------


bass:

 A     Asus4       A     Asus4
 v   v   v   v     v   v   v   v
-----------------|-----------------
-------0---------|-------0---------
-0---3-----------|-0---3-----------
---------0---3-0-|---------0---3-0-

Comments